God's Dice
Pearl Jam
Acordes

Subida por Jheyner
Álbum: Binaural ( 2000)


Más Versiones
Ver. 2 Ver. 3

Cambiar Cifrado
Americano Latino

Cambiar Tonalidad
-1 +1

Partir Pantalla Imprimir FAQ

+A
-A
Transcribed by: Evan Cowan


Verse
-|-------------------------------------------------------------------------|--
-|-------------------------------------------------------------------------|--
-|-----------------5--5----------------------------------------------------|--
-|----------7---7--5--5-----5--5---9----9-----7---7-7--7-7-7-7--7-7--7-7-7-|--
-|----------7---7--3--3-----5--5---9----9-----7---7-7--7-7-7-7--7-7--7-7-7-|--
-|----------5---5-----------3--3---7----7-----5---5-5--5-5-5-5--5-5--5-5-5-|--
G1+G2 It's out of my hands making your hands meet

-|----------------------------------------------------------------------|-----
-|--2---3-----/5-----3----5----3----3---3--2----------------------------|-----
-|----------------------------------------------------------------------|-----
-|----------------------------------------------------------------------|-----
-|----------------------------------------------------------------------|-----
-|----------------------------------------------------------------------|-----
G1 Stumbling around it's crumbling out of reach it's

-|----------------------------------------------------------------------|-----
-|----------------------------------------------------------------------|-----
-|-------------5-----5--------------------------------------------------|-----
-|--7----7-----5-----5----5----5----9---9--7---7-7--7-7-7-7--7-7--7-7-7-|-----
-|--7----7-----3-----3----5----5----9---9--7---7-7--7-7-7-7--7-7--7-7-7-|-----
-|--5----5----------------3----3----7---7--5---5-5--5-5-5-5--5-5--5-5-5-|-----
G2

-|-----------------------------------------------------------------------|----
-|-----------------------------------------------------------------------|----
-|----------------------------5--5---------------------------------------|----
-|----10--10--8-----8----7--7-5--5----5--5---9--9--7---7-7--7-7-7-7--7-7-|----
-|-----8---8--8-----8----7--7-3--3----5--5---9--9--7---7-7--7-7-7-7--7-7-|----
-|-----8---8--6-----6----5--5---------3--3---7--7--5---5-5--5-5-5-5--5-5-|----
G1+G2 In the cards your destiny your san - ity in tow

Chorus
-|---------------------------------------------------------------|------------
-|---------------------------------------------------------------|------------
-|----------5--5-5-5-5-5-5-5-5-5-5-5-5--7------------------------|------------
-|-----3-3--5--5-5-5-5-5-5-5-5-5-5-5-5--7--7----7-7----7--7---7--|------------
-|-----3-3--3--3-3-3-3-3-3-3-3-3-3-3-3--5--7----7-7----7--7---7--|------------
-|-----1-1---------------------------------5----5-5----5--5---5--|------------
G1+G2 Designate my luck

-|-------------------------------------------|--------------------------------
-|-------------------------------------------|--------------------------------
-|----------5--5-5-5-5-5-5-5-5-5-5-5-5--7----|--------------------------------
-|-----3-3--5--5-5-5-5-5-5-5-5-5-5-5-5--7----|--------------------------------
-|-----3-3--3--3-3-3-3-3-3-3-3-3-3-3-3--5----|--------------------------------
-|-----1-1-----------------------------------|--------------------------------
G1+G2 Resignate this

Verse
-|-------------------------------------------------------------------|--------
-|--2--3--/5---3--5-----3--3-----3--2---3----------------------------|--------
-|------------------------------------------------------------2------|--------
-|-------------------------------------------------------------------|--------
-|-------------------------------------------------------------------|--------
-|-------------------------------------------------------------------|--------
G1 Po-wer has no roots to guide no role

-|---------------------------------------------8---------------------|--------
-|-------------------------------------------------------------------|--------
-|---------5---5---------------------------7b9---9r7p5-7b9r7p5---5---|--------
-|--7--7---5---5--5-----5--9-----9--7---7----------------------7-----|--------
-|--7--7---3---3--5-----5--9-----9--7---7----------------------------|--------
-|--5--5----------3-----3--7-----7--5---5----------------------------|--------
G2 hold--|

-|-------------------------------------------------5-------------|------------
-|--2----3--/5--3--5--3--/3-----3--2--2------------5--3--2---2---|------------
-|---------------------------------------------------------------|------------
-|---------------------------------------------------------------|------------
-|---------------------------------------------------------------|------------
-|---------------------------------------------------------------|------------
G1 Trust me rusted minds refuse to go

-|---------------------------------------------------------------|------------
-|---------------------------------------------------------------|------------
-|-----------5--5------------------------------------------------|------------
-|--7-----7--5--5---5---5---9----9--7---7-7--7-7-7-7--7-7--7-7-7-|------------
-|--7-----7--3--3---5---5---9----9--7---7-7--7-7-7-7--7-7--7-7-7-|------------
-|--5-----5---------3---3---7----7--5---5-5--5-5-5-5--5-5--5-5-5-|------------
G2

-|-------------------------------------------------------------------------|--
-|-------------------------------------------------------------------------|--
-|-------------------------------5---5-------------------------------------|--
-|------10--10--8----8----7--7---5---5---5--5--9---9--7--7-7--7-7-7-7--7-7-|--
-|-------8---8--8----8----7--7---3---3---5--5--9---9--7--7-7--7-7-7-7--7-7-|--
-|-------8---8--6----6----5--5-----------3--3--7---7--5--5-5--5-5-5-5--5-5-|--
G1+G2 Unwillingness it's meaningless to walk away in vain

Chorus
-|----------------------------------------------------------------|-----------
-|----------------------------------------------------------------|-----------
-|----------5--5-5-5-5-5-5-5-5-5-5-5-5--7-------------------------|-----------
-|-----3-3--5--5-5-5-5-5-5-5-5-5-5-5-5--7--7----7-7----7---7---7--|-----------
-|-----3-3--3--3-3-3-3-3-3-3-3-3-3-3-3--5--7----7-7----7---7---7--|-----------
-|-----1-1---------------------------------5----5-5----5---5---5--|-----------
G1+G2 Designate my will

-|-------------------------------------------------------------|--------------
-|--------------------------------------2--3--/5--3--2--3------|--------------
-|-------5--5-5-5-5-5-5-5-5-5-5-5-5--7-------------------------|--------------
-|--3-3--5--5-5-5-5-5-5-5-5-5-5-5-5--7-------------------------|--------------
-|--3-3--3--3-3-3-3-3-3-3-3-3-3-3-3--5-------------------------|--------------
-|--1-1--------------------------------------------------------|--------------
G1 Designate my fill

-|-------------------------------------------------------------|--------------
-|-------------------------------------------------------------|--------------
-|-------5--5-5-5-5-5-5-5-5-5-5-5-5--7-------------------------|--------------
-|--3-3--5--5-5-5-5-5-5-5-5-5-5-5-5--7--7----7-7----7---7---7--|--------------
-|--3-3--3--3-3-3-3-3-3-3-3-3-3-3-3--5--7----7-7----7---7---7--|--------------
-|--1-1---------------------------------5----5-5----5---5---5--|--------------
G2

-|-----------------------------------------|----------------------------------
-|-----------------------------------------|----------------------------------
-|----------5--5-5-5-5-5-5-5-5-5-5-5-5--7--|----------------------------------
-|-----3-3--5--5-5-5-5-5-5-5-5-5-5-5-5--7--|----------------------------------
-|-----3-3--3--3-3-3-3-3-3-3-3-3-3-3-3--5--|----------------------------------
-|-----1-1---------------------------------|----------------------------------
G1+G2 Resignate my

Verse
-|----------------------------------------------------------------------|-----
-|----------------------------------------------------------------------|-----
-|----------5---5-------------------------------------------------------|-----
-|--7----7--5---5----5---5----9---9----7---7-7---7-7-7-7---7-7---7-7-7--|-----
-|--7----7--3---3----5---5----9---9----7---7-7---7-7-7-7---7-7---7-7-7--|-----
-|--5----5-----------3---3----7---7----5---5-5---5-5-5-5---5-5---5-5-5--|-----
G1 Will is crashing synapses flashing slow

-|----------------------------------------------------------------------|-----
-|----------------------------------------------------------------------|-----
-|----------5---5----------------------------7b9r7p5-5-7p5-5------------|-----
-|--7----7--5---5----5---5----9---9----7------------7-----7-7p5-7p5-5---|-----
-|--7----7--3---3----5---5----9---9----7---------------------------7----|-----
-|--5----5-----------3---3----7---7----5--------------------------------|-----
G2

-|-------------------------------------------------------0--------------|-----
-|--2----3---/5-----3--5--3--/3-----3------2---2---------5--3--2--------|-----
-|----------------------------------------------------------------------|-----
-|----------------------------------------------------------------------|-----
-|----------------------------------------------------------------------|-----
-|----------------------------------------------------------------------|-----
G1 Days like frame by frame where do they go ah yeah why

-|----------------------------------------------------------------------|-----
-|----------------------------------------------------------------------|-----
-|------------5-----5---------------------------------------------------|-----
-|--7----7----5-----5--5--5--9-------9-----7---7-7--7-7-7-7--7-7--7-7-7-|-----
-|--7----7----3-----3--5--5--9-------9-----7---7-7--7-7-7-7--7-7--7-7-7-|-----
-|--5----5-------------3--3--7-------7-----5---5-5--5-5-5-5--5-5--5-5-5-|-----
G2

-|--------------------------------------------------------------------------|-
-|--------------------------------------------------------------------------|-
-|--------------------------5----5------------------------------------------|-
-|-10----10--8---8--7---7---5----5---5--5--9-9-7---7-7--7-7-7-7--7-7--7-7-7-|-
-|--8-----8--8---8--7---7---3----3---5--5--9-9-7---7-7--7-7-7-7--7-7--7-7-7-|-
-|--8-----8--6---6--5---5------------3--3--7-7-5---5-5--5-5-5-5--5-5--5-5-5-|-
G1+G2 Fight forget it can't I spend it after I go

Bridge
-|------------------------------------------------|---------------------------
-|------------------------------------------------|---------------------------
-|------------------------------------------------|---------------------------
-|------------------------------------------------|---------------------------
-|------------------------------------------------|---------------------------
-|-0---------2----3-------------------------------|---------------------------
G1 Roll them high

-|------------------------------------------------|---------------------------
-|----------------------3-3-3-3-2--2--3-3-3-3-2---|---------------------------
-|----------------------2-2-2-2-2--2--2-2-2-2-2---|---------------------------
-|------------------------------------------------|---------------------------
-|------------------------------------------------|---------------------------
-|-0---------2----3-------------------------------|---------------------------
G2

-|-----------------------------------------------|----------------------------
-|-----------------------------------------------|----------------------------
-|-----------------------------------------------|----------------------------
-|-----------------------------------------------|----------------------------
-|-----------------------------------------------|----------------------------
-|--0-----2-----3--------------------------------|----------------------------
G1 Throw them again

-|-----------------------------------------------|----------------------------
-|---------------------3-3-3-3-2--2--3-3-3-3-2---|----------------------------
-|---------------------2-2-2-2-2--2--2-2-2-2-2---|----------------------------
-|-----------------------------------------------|----------------------------
-|-----------------------------------------------|----------------------------
-|--0-----2-----3--------------------------------|----------------------------
G2

-|----------------------------|-----------------------------------------------
-|----------------------------|-----------------------------------------------
-|----------------------------|-----------------------------------------------
-|----------------------------|-----------------------------------------------
-|----------------------------|-----------------------------------------------
-|--0---2-----3---------------|-----------------------------------------------
G1 All Gods' dice and it's

-|----------------------------|-----------------------------------------------
-|----------------------------|-----------------------------------------------
-|---------------------x-----|-----------------------------------------------
-|---------------------x-----|-----------------------------------------------
-|---------------------x-----|-----------------------------------------------
-|----------------------------|-----------------------------------------------
G2

Verse
-|------------------------------------------------------------------|---------
-|------------------------------------------------------------------|---------
-|------------5--5--------------------------------------------------|---------
-|-----7--7---5--5---5----5----9--9----7---7-7--7-7-7-7--7-7--7-7-7-|---------
-|-----7--7---3--3---5----5----9--9----7---7-7--7-7-7-7--7-7--7-7-7-|---------
-|-----5--5----------3----3----7--7----5---5-5--5-5-5-5--5-5--5-5-5-|---------
G1+G2 Monkey driven call this living ha

-|-----------------------------------------------------5--------------|-------
-|--2---3---/5----3------/8-3--3---3----2----2---------5--3--2--------|-------
-|--------------------------------------------------------------------|-------
-|--------------------------------------------------------------------|-------
-|--------------------------------------------------------------------|-------
-|--------------------------------------------------------------------|-------
G1 Too much thought it's o-verwrought a hole

-|--------------------------------------------------------------------|-------
-|--------------------------------------------------------------------|-------
-|-----------5----5---------------------------------5-----------------|-------
-|--7---7----5----5-------5-5--9----9----7---7-7--------7p5---5-------|-------
-|--7---7----3----3-------5-5--9----9----7---7-7------------7---------|-------
-|--5---5-----------------3-3--7----7----5---5-5----------------------|-------
G2

-|-----------------------------------------------------------------------|----
-|-----------------------------------------------------------------------|----
-|-----------------------------------5-----5-----------------------------|----
-|----10--10---8-----8------7----7---5-----5----5----5----9--9-9--9-9-9--|----
-|-----8---8---8-----8------7----7---3-----3----5----5----9--9-9--9-9-9--|----
-|-----8---8---6-----6------5----5--------------3----3----7--7-7--7-7-7--|----
G1+G2 Minding yours what's mine not yours will finish us off

Outro
-|----------------------------------------------------------------|-----------
-|----------------------------------------------------------------|-----------
-|----------7--7-7-7-7-7-7-7-7-7-7-7-7--9-------------------------|-----------
-|-----5-5--7--7-7-7-7-7-7-7-7-7-7-7-7--9--9---9-9---9-9--9---9---|-----------
-|-----5-5--5--5-5-5-5-5-5-5-5-5-5-5-5--7--9---9-9---9-9--9---9---|-----------
-|-----3-3---------------------------------7---7-7---7-7--7---7---|-----------
G1+G2 Designate my life

-|-------------------------------------------------------------|--------------
-|-------------------------------------------------------------|--------------
-|-------7--7-7-7-7-7-7-7-7-7-7-7-7--9-------------------------|--------------
-|--5-5--7--7-7-7-7-7-7-7-7-7-7-7-7--9--9---9-9---9-9--9---9---|--------------
-|--5-5--5--5-5-5-5-5-5-5-5-5-5-5-5--7--9---9-9---9-9--9---9---|--------------
-|--3-3---------------------------------7---7-7---7-7--7---7---|--------------
G1 Designate my view

-|-------------------------------------------------------------|--------------
-|--------------------------------------0*vvvvvvvvvvvvvvvvvvv--|--------------
-|-------7--7-7-7-7-7-7-7-7-7-7-7-7--9-------------------------|--------------
-|--5-5--7--7-7-7-7-7-7-7-7-7-7-7-7--9-------------------------|--------------
-|--5-5--5--5-5-5-5-5-5-5-5-5-5-5-5--7-------------------------|--------------
-|--3-3--------------------------------------------------------|--------------
G2 *wide vibrato with trem bar

-|-------------------------------------------------------------|--------------
-|-------------------------------------------------------------|--------------
-|-------7--7-7-7-7-7-7-7-7-7-7-7-7--9-------------------------|--------------
-|--5-5--7--7-7-7-7-7-7-7-7-7-7-7-7--9--9---9-9---9-9--9---9---|--------------
-|--5-5--5--5-5-5-5-5-5-5-5-5-5-5-5--7--9---9-9---9-9--9---9---|--------------
-|--3-3---------------------------------7---7-7---7-7--7---7---|--------------
G1 Resignate my will my will my will I will

-|-------12b13---12b13-12b13-12b13--12b13----------------------|--------------
-|-------------------------------------------------------------|--------------
-|-------------------------------------------------------------|--------------
-|-------------------------------------------------------------|--------------
-|-------------------------------------------------------------|--------------
-|-------------------------------------------------------------|--------------
G2

-|--------------------------------------------------------------||------------
-|--------------------------------------------------------------||------------
-|----------7----7--7--7--7--7--7--7--7--7--7--7--7----9--------||------------
-|--5--5----7----7--7--7--7--7--7--7--7--7--7--7--7----9---9---||------------
-|--5--5----5----5--5--5--5--5--5--5--5--5--5--5--5----7---9---||------------
-|--3--3---------------------------------------------------7---||------------
G1 Resignate my god

-|-----12b14-12b14-12b14r12-10-12-12b14r12p10--10-12p10----10--||------------
-|-------------------------------------------12--------12--10--||------------
-|--------------------------------------------------------------||------------
-|--------------------------------------------------------------||------------
-|--------------------------------------------------------------||------------
-|--------------------------------------------------------------||------------
G2

ACORDES PARA GUITARRA

PIANO UKELELE


COMENTARIOS

Aún no hay comentarios,

¡escribe el primero!

Escribe una pregunta, duda o comentario sobre esta canción, te responderemos a la brevedad.

Las más tocadas de Pearl Jam

Toca una Canción al Azar de Pearl Jam