Green Disease
Pearl Jam
Acordes

Subida por Rosanema
Álbum: Riot Act ( 2002)


Más Versiones
Ver. 2 Ver. 3 Ver. 4 Ver. 5 Ver. 6
+A
-A
Introdução:  
----------0-------------
------------------------
---2-0h2----------------
------------------------ ...
------------------------
------------------------


Verso: (C# E G# D#)
-------------------------------
-------------------------------
--6-6---9-9---------8-8--------
--6-6---9-9---6-6---8-8-------- ...
--4-4---7-7---6-6---6-6--------
--------------4-4--------------

-------------------------------
------------------x------------
--6-6----4-4------2------------
--6-6----2-2------2------------
--4-4----2-2------0------------
-------------------------------


INTRODUÇÃO:


VERSO: (C# E G# D#)
---------------------------------
---------9------9-----9-----7----
------9-------9-----8-----8------
--11--------9-----9-----9--------
---------------------------------
---------------------------------



REFRÃO:

A E A E D E
well i guess there's nothing wrong with what you say

A E A E D
but don't sell me, "there can't be better ways"

A E A E D
tell the captain, "the boat's not safe, we're drowning"

A E A E D (A4+ A)
turns out he's the one making waves, waves, waves...


INTRODUÇÃO:

REFRÃO: (só que outra letra)



FIM



_______________________________________________________



Versao 2

intro/end:
------------------------------------------------------------------------------
-------5-----5----------------------------------------------------------------
-----0-----0------------------------------------------------------------------
-7p5-----5--------------------------------------------------------------------
------------------------------------------------------------------------------
------------------------------------------------------------------------------
repeat with E>F#>G>A chords over

verse:
------------------------------------------------------------------------------
--5---9---12---7----------5----9----------------------------------------------
--6---9---13---8----------6----9----------------------------------------------
--6---9---13---8----------6----9----------------------------------------------
--4---7---11---6----------4----7----------------------------------------------
------------------------------------------------------------------------------


chorus:
-----0-------0---2---0-------0-----0--2---------------------------------------
--2--0----2--0---3---0----2--0--2--0--3---------------------------------------
--2--1----2--1---2---1----2--1--2--1--2--2-4-5-4-2----6-7--7--9---------------
--2--2----2--2---0---2----2--2--2--2--0---------------7-7--7--7---------------
--0--2----0--2-------2----0--2--0--2--0---------------0-0--0--0---------------
-----0-------0-------0-------0-----0------------------------------------------
strum A several times

ACORDES PARA GUITARRA

PIANO UKELELE


COMENTARIOS

Aún no hay comentarios,

¡escribe el primero!

Escribe una pregunta, duda o comentario sobre esta canción, te responderemos a la brevedad.

Las más tocadas de Pearl Jam

Toca una Canción al Azar de Pearl Jam