Habit
Pearl Jam
Acordes

Subida por eugge
Álbum: No Code ( 1996)


Más Versiones
Ver. 2 Ver. 3 Ver. 4 Ver. 5 Ver. 6
+A
-A
Versão 1
-======-

Part One - A5 D5 G#5

SEE IT HAPPEN TO A COUPLE OF FRIENDS
SEE IT HAPPEN AND THE MESSAGE IT SENDS
TAKING OF, FOR WHAT'S AN OBVIOUS FALL
JUST TO TO SEE WHAT ALL THE FUSS IS ABOUT

Part Two
------------------------------------
------------------------------------
--3-7-3-3-7-3-7---------------------
------------------------------------
------------------------------------
------------------------------------

IT'S NOT YOUR WAY...NOT YOUR WAY...IT'S NOT YOUR WAY

ANOTHER HABIT SAYS IT'S IN LOVE WITH YOU
ANOTHER HABIT SAYS IT'S LOVE'S OVERDUE
ANOTHER HABIT LIKE AN UNWANTED FRIEND
I'M SO HAPPY WITH MY RIGHTOUS SELF

Part Four
------------------------------------
------------------------------------
--3-7-3-3-7-3-7---------------------
------------------------------------
------------------------------------
------------------------------------

IT'S NOT YOUR WAY...NOT YOUR WAY...IT'S NOT YOUR WAY

Part Five - F5 E5 D5

NEVER THOUGHT YOU'D HABIT...(3x)
NEVER THOUGHT YOU...(2x)
NEVER THOUGHT YOU'D HABIT...(3x)
NEVER THOUGHT YOU...

Part Six

F5 - NEVER THOUGHT YOU'D HABIT...
E5 D5 - NEVER THOUGHT YOU'D HABIT...
F5 - NEVER THOUGHT YOU'D HABIT...
E5 D5 - NEVER THOUGHT YOU'D HABIT...
F5 - NEVER THOUGHT YOU'D HABIT... - E5 D5 - F5

Part Seven - F5 E5 D5

NEVER THOUGHT YOU'D HABIT...(3x)
NEVER THOUGHT YOU...(4x)


_______________________________________________________




Versão 2
-======-

Author/Artist: Pearl Jam
Title: Habit
Album: No Code
Transcribed by: Evan Cowan




Dropped-D tuning

-|------------------------|-------------------------|-------------------------
-|------------------------|-------------------------|-------------------------
-|------------------------|-------------------------|-------------------------
-|-7--0--7--6-6-6-6-6-6-0-|-7--0--7--6-6-6-6-5-3-0--|-------------------------
-|-7--0--7--6-6-6-6-6-6-0-|-7--0--7--6-6-6-6-5-3-0--|-------------------------
-|-7--0--7--6-6-6-6-6-6-0-|-7--0--7--6-6-6-6-5-3-0--|-------------------------
Intro, G1 4x
-|------------------------|-------------------------|-------------------------
-|------------------------|-------------------------|-------------------------
-|-2-----2----------------|-2-----2-----------------|-------------------------
-|-2--0--2--6-6-6-6-6-6-0-|-2--0--2--6-6-6-6-5-3-0--|-------------------------
-|-0--0--0--6-6-6-6-6-6-0-|-0--0--0--6-6-6-6-5-3-0--|-------------------------
-|----0-----6-6-6-6-6-6-0-|----0-----6-6-6-6-5-3-0--|-------------------------
G2 plays like this 4x
-|------------------------|-------------------------|-----------------------|-
-|------------------------|-------------------------|-----------------------|-
-|-8----------------------|-------8-8-------8-8-----|---------8-8-------8-8-|-
-|-8-8-8-8--8-8-8-8-8-8-8-|-8-8-8-8-8-8-8-8-8-8-8-8-|-8-8-8-8-8-8-8-8-8-8-8-|-
-|-6-6-6-6--6-6-6-6-6-6-6-|-6-6-6-6-6-6-6-6-6-6-6-6-|-6-6-6-6-6-6-6-6-6-6-6-|-
-|------------------------|-------------------------|-----------------------|-
Bridge, G1

-|-------------------------------------|--------------------------------------
-|-------------------------------------|--------------------------------------
-|-------------8-8-------8-8-8-8-8-8-8-|--------------------------------------
-|-8-8-8-8-8-8-8-8-8-8-8-8-8-8-8-8-8-8-|--------------------------------------
-|-6-6-6-6-6-6-6-6-6-6-6-6-6-6-6-6-6-6-|--------------------------------------
-|-------------------------------------|--------------------------------------


-|----------------------------|---------------------------|-------------------
-|----------------------------|---------------------------|-------------------
-|-8-8-8-8-8-8--8-8-8---------|-8-8-8-8-8-8-8-8-8---------|-------------------
-|-8-8-8-8-8-8--8-8-8-7-7-7-8-|-8-8-8-8-8-8-8-8-8-7-7-7-8-|-------------------
-|-5-6-6-6-6-6--6-6-6---------|-6-6-6-6-6-6-6-6-6---------|-------------------
-|----------------------------|---------------------------|-------------------
Bridge, G2 2x
-|----------------------------|------------------------|--------------------|-
-|----------------------------|------------------------|--------------------|-
-|-8-8-8-8-8-8--8-8-8-8-8-8-0-|-2-----2----------------|-2---2--------------|-
-|-8-8-8-8-8-8--8-8-8-8-8-8-0-|-2--0--2--6-6-6-6-6-6-0-|-2-0-2-6-6-6-6-6-5-0|-
-|-6-6-6-6-6-6--6-6-6-6-6-6-0-|-0--0--0--6-6-6-6-6-6-0-|-0-0-0-6-6-6-6-6-5-0|-
-|----------------------------|----0-----6-6-6-6-6-6-0-|---0---6-6-6-6-6-5-0|-
4x
-|---------------|----------------------|-------------------------0---------|-
-|---------------|----------------------|-------------------------0---------|-
-|---------------|----------------------|----2---------------2----1---------|-
-|---------------|-3--2--0--7-9-7-9-7-0-|-3--2-0--3----0--3--2-0--2---------|-
-|---------------|-3--2--0--7-9-7-9-7-0-|-3--0----3-------3--0-0--2---------|-
-|---------------|-3--2--0--7-9-7-9-7-0-|-3-------3-/7----3-------2---------|-
Bridge same as B4 chorus 8x G1 reverse strum
-|---------------------------------|----------------------|-------------------
-|---------------------------------|----------------------|-------------------
-|-----2---------2---------2-------|----------------------|-------------------
-|-3---2-0---3---2-0---3---2-0---2-|-3--2--0--7-9-7-9-7-0-|-------------------
-|-3---0-0---3---0-0---3---0-0---2-|-3--2--0--7-9-7-9-7-0-|-------------------
-|-3-----0---3-----0---3-----0---2-|-3--2--0--7-9-7-9-7-0-|-------------------
G2 Chorus 8x
-|--------------------------|----------------------|--------------------------
-|-----------------------3--|----------------------|--------------------------
-|-----------------------2--|----------------------|--------------------------
-|-3---2---/5---4---3----0--|----------------------|--------------------------
-|-3---2---/5---4---3----0--|----------------------|--------------------------
-|-3---2---/5---4---3----0--|----------------------|--------------------------
(G2 slides up) (feedback, scrapes)

-|-12-------|--------------|--------------------------------------------------
-|----13----|--7---7---7---|--------------------------------------------------
-|-------14-|--7---7---7---|--------------------------------------------------
-|----------|--7---7---7---|--------------------------------------------------
-|----------|--5---5---5---|--------------------------------------------------
-|----------|--0---0---0---|--------------------------------------------------
G1, 20x strum till end
-|---------10----------------------------|-------10-------------10-------|----
-|-13b15vv----13-------------------------|-13b15----13-10-13b15----13-10-|----
-|---------------12-10-10----------------|-------------------------------|----
-|------------------------12-10-10-10-9-|-------------------------------|----
-|---------------------------------------|-------------------------------|----
-|---------------------------------------|-------------------------------|----
G2, solo(heavy wah)

-|-------10-------------10-------13b15-15r13-10------10------------|----------
-|-13b15----13-10-13b15----13-10----------------13b-----13---------|----------
-|---------------------------------------------------------12-10---|----------
-|---------------------------------------------------------------0-|----------
-|-----------------------------------------------------------------|----------
-|-----------------------------------------------------------------|----------


-|-----------------------------------------------------|----------------------
-|-----------------------------------------------------|----------------------
-|-----------------------------10-10-10-10-12-12-12-12-|----------------------
-|-12-10-10-12--12-10-12-12-12-10-10-10-10-12-12-12-12-|----------------------
-|-12-10-10-12--12-10-12-12-12-------------------------|----------------------
-|-----------------------------------------------------|----------------------


-|-------------10-------------------------------------10----------|-----------
-|----------10-------------------------------------10-------------|-----------
-|----12b14-------12-10----------------------12b14-------10-------|-----------
-|-12-------------------12-10-10-12-10-10-12----------------12-12-|-----------
-|-12-------------------12-10-10-12-10-10-12----------------------|-----------
-|----------------------------------------------------------------|-----------


-|-------------------------10-------10-------------------------|--------------
-|----------------------10----13b15----10----------------------|--------------
-|----------------12b14----------------------------------------|--------------
-|-10-12-12-10-12-------------------------10-12-12-12-10-10-12-|--------------
-|-10-12-12-10-12-------------------------10-12-12-12-10-10-12-|--------------
-|-------------------------------------------------------------|--------------


-|----------10-13b15-13-10-------------------|-------------------------|------
-|-------10----------------------------------|-13-13-13-13-15-15-15----|------
-|-12b14-------------------------------------|-------------------------|------
-|-------------------------10-12-12-10-12-12-|-------------------------|------
-|-------------------------10-12-12-10-12-12-|-------------------------|------
-|-------------------------------------------|-------------------------|------


-|----13-15b17--r15-15-15--13-------------|-----------------------------------
-|-15-------------------------15-13-15-13-|-----------------------------------
-|----------------------------------------|-----------------------------------
-|----------------------------------------|-----------------------------------
-|----------------------------------------|-----------------------------------
-|----------------------------------------|-----------------------------------
fade out

ACORDES PARA GUITARRA

PIANO UKELELE


COMENTARIOS

Aún no hay comentarios,

¡escribe el primero!

Escribe una pregunta, duda o comentario sobre esta canción, te responderemos a la brevedad.

Las más tocadas de Pearl Jam

Toca una Canción al Azar de Pearl Jam