Help Help
Pearl Jam
Acordes

Subida por Fercho
Álbum: Riot Act ( 2002)


Más Versiones
Ver. 2 Ver. 3 Ver. 4 Ver. 5 Ver. 6

Cambiar Cifrado
Americano Latino

Cambiar Tonalidad
-1 +1

Partir Pantalla Imprimir FAQ

+A
-A
verse
------------------------------------------------------------------------------
------------------------------------------------------------------------------
----5-5--4--3-3-4-------------------------------------------------------------
------------------------------------------------------------------------------
-3--3-3--3--3-3-3-------------------------------------------------------------
------------------------------------------------------------------------------


prechorus
------------------------------------------------------------------------------
-----8-----8---8---7-----7----------------------------------------------------
---------------------7-----7--------------------------------------------------
---8-----8-------------7-----7------------------------------------------------
-6-----6-----6---5-------5----------------------------------------------------
------------------------------------------------------------------------------

chorus
------------------------------------------------------------------------------
------------------------------------------------------------------------------
-5-5-5-6-6-6--7-8-8-8---9-10-10-10--------------------------------------------
-5-5-5-6-6-6--7-8-8-8---9-10-10-10--------------------------------------------
-3-3-3-4-4-4--5-6-6-6---7-8--8--8---------------------------------------------
------------------------------------------------------------------------------

solo:
--------------------------------------------------13b-11----------------------
----------------------------------13-11-13vv-13vv--------13p11-13-------------
--12vvv-12-10b-8-10-8vv--8-10-12v---------------------------------------------
------------------------------------------------------------------------------
------------------------------------------------------------------------------
------------------------------------------------------------------------------


------------------------------------------------------------------------------
-13h16p1311h13p11------------------------------------------------------------
-------------------12p10-10h12p10-----------------10h12p108----8-10b-10------
----------------------------------10h12p108h10p8------------10----------10---
------------------------------------------------------------------------------
------------------------------------------------------------------------------


----------------------13b-13b-13-13b-11----11-13-13-13b-----------------------
----------------------------------------13--------------13-/-13-16-13-11-----
-8-10brp8----8--/------------------------------------------------------------
----------10------------------------------------------------------------------
------------------------------------------------------------------------------
------------------------------------------------------------------------------


-----------------------------------------------------------11-----------------
-11h13p11h13h16p13p11-13--13------------------11-13-11-13----13-11-----------
------------------------------10-8----8vvv--12----------------------12-10-8v--
-----------------------------------10-----------------------------------------
------------------------------------------------------------------------------
------------------------------------------------------------------------------


------------------------------------------------------------------------------
------------------------------------------------------------------------------
----8-10b----8-10b------------------------------------------------------------
-10-------10------------------------------------------------------------------
------------------------------------------------------------------------------
------------------------------------------------------------------------------
repeat

ACORDES PARA GUITARRA

PIANO UKELELE


COMENTARIOS

Aún no hay comentarios,

¡escribe el primero!

Escribe una pregunta, duda o comentario sobre esta canción, te responderemos a la brevedad.

Las más tocadas de Pearl Jam

Toca una Canción al Azar de Pearl Jam