I Am Mine
Pearl Jam
Acordes

Subida por Ferdidurke
Álbum: Riot Act ( 2002)


Más Versiones
Ver. 2 Ver. 3 Ver. 4 Ver. 5 Ver. 6

Cambiar Cifrado
Americano Latino

Cambiar Tonalidad
-1 +1

Partir Pantalla Imprimir FAQ

+A
-A
[Intro]

E|---0---0--0---0--0--0-----0---0--0---0--0--0--0-|
B|---3---3--3---6--8--6-----5---5--5---6--5--1--3-|
G|---2---2--2---5--7--5-----4---4--4---5--4--0--2-| (3x)
D|---0---0--0---0--0--0-----0---0--0---0--0--0--0-|
A|------------------------------------------------|
E|------------------------------------------------|

E|---0---0--0---0--0--0-----0---0--0---0--0--0--0-0-0-0|
B|---3---3--3---6--8--6-----5---5--5---5--5--5--2-2-2-2|
G|---2---2--2---5--7--5-----4---4--4---4--4--4--2-2-2-2|
D|---0---0--0---0--0--0-----0---0--0---0--0--0--2-2-2-2|
A|----------------------------------------------0-0-0-0|
E|-----------------------------------------------------|

D F C G
The selfish, they're all standing in line
D F C G
Faithing and hoping to buy themselves time
D F C G
Me, I figure as each breath goes by
F G D D4
I only own my mind

D F C G
The north is to south what the clock is to time
D F C G
There's east and there's west and there's everywhere life
D F C G
I know I was born and I know that I'll die
F G D D4 D
The in between is mine
F G D
I am mine

G Am D D4 D
And the meanings that get left behind
G Am D D4 D
All their innocence lost at one time
G Am D D4 D
Significant, between the lines
C
There's no need to hide

We're safe tonight

E|---0---0--0---0--0--0-----0---0--0---0--0--0--0-|
B|---3---3--3---6--8--6-----5---5--5---6--5--1--3-|
G|---2---2--2---5--7--5-----4---4--4---5--4--0--2-|
D|---0---0--0---0--0--0-----0---0--0---0--0--0--0-|
A|------------------------------------------------|
E|------------------------------------------------|

E|---0---0--0---0--0--0-----0---0--0---0--0--0--0-0-0-0|
B|---3---3--3---6--8--6-----5---5--5---5--5--5--2-2-2-2|
G|---2---2--2---5--7--5-----4---4--4---4--4--4--2-2-2-2|
D|---0---0--0---0--0--0-----0---0--0---0--0--0--2-2-2-2|
A|----------------------------------------------0-0-0-0|
E|-----------------------------------------------------|

D F C G
The ocean is full cause everyone's crying
D F C G
The full moon is looking for friends at hightide
D F C G
The sorrow grows bigger when the sorrow's denied
F G D D4 D
I only know my mind
F G D
I am mine

G Am D D4 D
And the meanings that get left behind
G Am D D4 D
All their innocence lost at one time
G Am D D4 D
Significance, behind the eyes
C
There's no need to hide

We're safe tonight

G Am D D4 D
And the meanings that get left behind
G Am D D4 D
All the feeling is broken with time
G Am D D4 D
We're all different behind the eyes
C
We may need to hide
G Am D D4 D
And the meanings that get left behind
G Am D D4 D
All their innocence lost at one time
G Am D D4 D
Significance between the lines
C
There's no need to hide

[Final] G Am D
G Am D
G Am D
C

ACORDES PARA GUITARRA

PIANO UKELELE
D
F
C
G
D4
Am


COMENTARIOS

Aún no hay comentarios,

¡escribe el primero!

Escribe una pregunta, duda o comentario sobre esta canción, te responderemos a la brevedad.

Las más tocadas de Pearl Jam

Toca una Canción al Azar de Pearl Jam
D
F
C
G
D4
Am