Immortality
Pearl Jam
Acordes

Subida por Franco
Álbum: Vitalogy ( 1994)


Más Versiones
Ver. 2 Ver. 3 Ver. 4 Ver. 5 Ver. 6
+A
-A
Intro:
E|--------0--------|
B|----------3------|
G|-----0------0----|
D|---2-------------|
A|-3---------------|
E|---------------0-|

Variação Intro:
E|-------------------0--------|
B|-0h3p0---------------3------|
G|-------2-0------0------0----|
D|--------------2-----------2-|
A|------------3-------------2-|
E|--------------------------0-|

Repita os seguintes riffs 2 vezes.
E|-------------------------|
B|------0---------3--3-3-3-|
G|--------0----2--2--2-2-2-|
D|-------------------------|
A|---2---------------------|
E|-0---------2-------------|

E|-------------------------------|
B|------0h3p0-----------3--3-3-3-|
G|------------0------2--2--2-2-2-|
D|--------------0----------------|
A|---2---------------------------|
E|-0---------------2-------------|

Vacate is the word
E|-------------------------|
B|------0---------3--3-3-3-|
G|--------0----2--2--2-2-2-|
D|-------------------------|
A|---2---------------------|
E|-0---------2-------------|

Vengeance has no place so near to her
E|--------------------------|
B|------0----------3--3-3-3-|
G|--------0-----2--2--2-2-2-|
D|----------0---------------|
A|---2----------------------|
E|-0----------2-------------|

Cannot find the comfort in this world
E|-------------------------|
B|------0---------3--3-3-3-|
G|--------0----2--2--2-2-2-|
D|-------------------------|
A|---2---------------------|
E|-0---------2-------------|

E|-------------------------------|
B|------0h3p0-----------3--3-3-3-|
G|------------0------2--2--2-2-2-|
D|--------------0----------------|
A|---2---------------------------|
E|-0---------------2-------------|

Artificial tear
E|-------------------------|
B|------0---------3--3-3-3-|
G|--------0----2--2--2-2-2-|
D|-------------------------|
A|---2---------------------|
E|-0---------2-------------|

Vessel stabbed, next up, volunteers?
E|--------------------------|
B|------0----------3--3-3-3-|
G|--------0-----2--2--2-2-2-|
D|----------0---------------|
A|---2----------------------|
E|-0----------2-------------|

Vulnerable, Wisdom can't adhere
E|-------------------------|
B|------0---------3--3-3-3-|
G|--------0----2--2--2-2-2-|
D|-------------------------|
A|---2---------------------|
E|-0---------2-------------|

E|-------------------------------|
B|------0h3p0-----------3--3-3-3-|
G|------------0------2--2--2-2-2-|
D|--------------0----------------|
A|---2---------------------------|
E|-0---------------2-------------|

C Em
A truant finds home

C Em
And a wish to hold on

C Em A
But there's a trapdoor in the Sun

E|--------------|
B|-3-2--0-0h2---|
G|------------2-|
D|--------------|
A|--------------|
E|--------------|

Immortality...

Solo 1:
E|-------------------------------------|---------------------17--------------|
B|-------------------------------------|-15b17--15b17r15--17-------------12-|
G|-14b16---12----12----12-----12-------|--------------------------12-----12-|
D|------------14----14----14-----14-12-|-----------------------------14------|
A|-------------------------------------|-------------------------------------|
E|-------------------------------------|-------------------------------------|

As privileged as a whore
E|-------------------------|
B|------0---------3--3-3-3-|
G|--------0----2--2--2-2-2-|
D|-------------------------|
A|---2---------------------|
E|-0---------2-------------|

Victims in demand for public show
E|--------------------------|
B|------0----------3--3-3-3-|
G|--------0-----2--2--2-2-2-|
D|----------0---------------|
A|---2----------------------|
E|-0----------2-------------|

Swept out through the cracks beneath the door
E|-------------------------------|
B|------0h3p0-----------3--3-3-3-|
G|------------0------2--2--2-2-2-|
D|--------------0----------------|
A|---2---------------------------|
E|-0---------------2-------------|

E|-------------------------------|
B|------0h3p0-----------3--3-3-3-|
G|------------0------2--2--2-2-2-|
D|--------------0----------------|
A|---2---------------------------|
E|-0---------------2-------------|

Holier than Thou, How?
E|-------------------------|
B|------0---------3--3-3-3-|
G|--------0----2--2--2-2-2-|
D|-------------------------|
A|---2---------------------|
E|-0---------2-------------|

Surrendered, executed anyhow
E|--------------------------|
B|------0----------3--3-3-3-|
G|--------0-----2--2--2-2-2-|
D|----------0---------------|
A|---2----------------------|
E|-0----------2-------------|

Scrawl dissolved, Cigar box on the floor
E|-------------------------|
B|------0---------3--3-3-3-|
G|--------0----2--2--2-2-2-|
D|-------------------------|
A|---2---------------------|
E|-0---------2-------------|

E|-------------------------------|
B|------0h3p0-----------3--3-3-3-|
G|------------0------2--2--2-2-2-|
D|--------------0----------------|
A|---2---------------------------|
E|-0---------------2-------------|

C Em
A truant finds home

C Em
And a wish to hold onto

C Em A
He saw the trapdoor in the Sun

E|--------------|
B|-3-2--0-0h2---|
G|------------2-|
D|--------------|
A|--------------|
E|--------------|

Solo 2:
E|--------------------|------------x-x-|
B|-------------x-x--x-|------------x-x-|
G|-2b3r2p0-----x-x--x-|-2b3r2p0----x-x-|
D|---------2---x-x--x-|---------2--x-x-|
A|--------------------|------------x-x-|
E|--------------------|------------x-x-|

E|-0-0-0-0--0-0--0-0---3-3--3/------5/7---3-5-3-|
B|-3-3-3-3--5-3--3-5----------5--5--------------|
G|----------------------------------------------|
D|----------------------------------------------|
A|----------------------------------------------|
E|----------------------------------------------|

E|-3-3-3-3-3-3-2/-|-3-3-3-3-3-3-2/-|
B|-5-5-5-5-5-5-3/-|-5-5-5-5-5-5-3/-|
G|----------------|----------------|
D|----------------|----------------|
A|----------------|----------------|
E|----------------|----------------|

E|-------------------------------------|-------12-----------12------------------------------|
B|-12----12----------------------------|----12----12--15b------15-12----12-----14-12----12-|
G|-12----12----12----12----12-12----12-|-14--------------------------14----14--14-12-14-12-|
D|----14----14----14----14-------14----|---------------------------------------------14-----|
A|-------------------------------------|----------------------------------------------------|
E|-------------------------------------|----------------------------------------------------|

E|------------------------|----------------------|
B|------------------------|--------------------2-|
G|-2b3r2p0--------2-0---2-|-2b3r2p0------2-0---2-|
D|---------2--0-2-----2---|---------2--0-----2---|
A|------------------------|----------------------|
E|------------------------|----------------------|

E|-0-0-0-0--0-0-0--0-0--0-0-0-0-0-0-0-0-0--0--0--0--0--0--0--0--0--0--0--0--0--0--0--|
B|-3-3/5-5--5/8-8--7-7--7-7-7-7/8-8-8-8/10-10-10-10-12-12-12-12-12-12-12-12-12-12-12-|
G|-----------------------------------------------------------------------------------|
D|-----------------------------------------------------------------------------------|
A|-----------------------------------------------------------------------------------|
E|-----------------------------------------------------------------------------------|

(Toque várias vezes)
A
E|-0-|
B|-2-|
G|-2-|
D|-2-|
A|-0-|
E|---|

Immortality..

E|-------------------------|
B|------0---------3--3-3-3-|
G|--------0----2--2--2-2-2-|
D|-------------------------|
A|---2---------------------|
E|-0---------2-------------|

E|-------------------------------|
B|------0h3p0-----------3--3-3-3-|
G|------------0------2--2--2-2-2-|
D|--------------0----------------|
A|---2---------------------------|
E|-0---------------2-------------|

I cannot stop the thought
E|-------------------------|
B|------0---------3--3-3-3-|
G|--------0----2--2--2-2-2-|
D|-------------------------|
A|---2---------------------|
E|-0---------2-------------|

I'm running in the dark
E|--------------------------|
B|------0----------3--3-3-3-|
G|--------0-----2--2--2-2-2-|
D|----------0---------------|
A|---2----------------------|
E|-0----------2-------------|

Coming up a which way sign
E|-------------------------|
B|------0---------3--3-3-3-|
G|--------0----2--2--2-2-2-|
D|-------------------------|
A|---2---------------------|
E|-0---------2-------------|

All good truants must decide
E|--------------------------|
B|------0----------3--3-3-3-|
G|--------0-----2--2--2-2-2-|
D|----------0---------------|
A|---2----------------------|
E|-0----------2-------------|

C Em
Oh, stripped and sold, mom

C Em
Auctioned forearm

C Em A
And whiskers in the sink

C Em
Truants move on

C Em
Cannot stay long

C Em A
Some die just to live...

E|--------------|
B|-3-2--0-0h2---|
G|------------2-|
D|--------------|
A|--------------|
E|--------------|

ACORDES PARA GUITARRA

PIANO UKELELE
C
Em
A


COMENTARIOS

Aún no hay comentarios,

¡escribe el primero!

Escribe una pregunta, duda o comentario sobre esta canción, te responderemos a la brevedad.

Las más tocadas de Pearl Jam

Toca una Canción al Azar de Pearl Jam
C
Em
A