In Hiding
Pearl Jam
Acordes

Subida por Javy
Álbum: Yield ( 1998)


Más Versiones

+A
-A
-|---------------------0----0--x-x-x--0--|---------------------5--5--|--------
-|--x-x--5-5-5-5-5-----8----8--x-x-x--7--|--x-x--5-5-5-5-5-----8--7--|--------
-|--x-x--6-6-6-6-7--0--7--7----x-x-x--7--|--x-x--6-6-6-6-7--0--7--7--|--------
-|--x-x--7-7-7-7-7--0--0--0-----------0--|--x-x--7-7-7-7-7--0--0--0--|--------
-|-------0-0-0-0-0-----------------------|-------0-0-0-0-0-----------|--------
-|---------------------------------------|---------------------------|--------
Intro Stone (dist.)

-|--5--x-x------5----|--8--7--|--8--7--8--|--5--|-----------------------------
-|--7--x-x----8------|--8--8--|--8--8--8--|--7--|-----------------------------
-|--7--x-x--7-----0--|--7--7--|--7--7--7--|--7--|-----------------------------
-|--0----------------|--------|-----------|--0--|-----------------------------
-|-------------------|--------|-----------|-----|-----------------------------
-|-------------------|--------|-----------|-----|-----------------------------
Verse Stone (clean) improv. w/all notes

-|--5--x-x------5----|--8--7--|----5-----------5----|-------------------------
-|--7--x-x----8------|--8--8--|--8---8-7-5-7/8------|-------------------------
-|--7--x-x--7-----0--|--7--7--|--7---------------7--|-------------------------
-|--0----------------|--------|---------------------|-------------------------
-|-------------------|--------|---------------------|-------------------------
-|-------------------|--------|---------------------|-------------------------
improv. w/all notes

-|--5-----------------|-------------|-----------------------------------------
-|--7--7/8-7-5---5-7--|------8-7-5--|-----------------------------------------
-|--7----------7------|--5----------|-----------------------------------------
-|--0-----------------|-------------|-----------------------------------------
-|--------------------|-------------|-----------------------------------------
-|--------------------|-------------|-----------------------------------------
Stone *Stone and Mike play simultaneoulsy
-|-------------------|-------------------|------------------------------------
-|----7/8-7-5---5-7--|----7/8-7-5---5-7--|------------------------------------
-|--7---------7------|--5---------7------|------------------------------------
-|-------------------|-------------------|------------------------------------
-|-------------------|-------------------|------------------------------------
-|-------------------|-------------------|------------------------------------
Mike

-|-------3-------3--|-------2--|----------------------------------------------
-|----5--5----5--5--|----3--3--|----------------------------------------------
-|--4----4--4----4--|--2----2--|----------------------------------------------
-|------------------|----------|----------------------------------------------
-|------------------|----------|----------------------------------------------
-|------------------|----------|----------------------------------------------
Stone and Mike

-|--2----5---------|---------|---------|----------|---------------------|-----
-|--3----7---8--7--|--10-10--|--12-10--|--13--13--|--15-15-15-15-15-15--|-----
-|--2----7---7--7--|--7--7---|--7--7---|--10--10--|--10-10-10-10-10-10--|-----
-|--0----0---------|--0--0---|---------|--12--12--|---------------------|-----
-|-----------------|---------|---------|----------|---------------------|-----
-|-----------------|---------|---------|----------|---------------------|-----
Post-Verse Stone

-|-----------------------|-----------------|-------------------------------|--
-|--x-x--2--2--2-2-2-----|-----------------|-------------------------------|--
-|--x-x--2--2--2-2-2--0--|-----0-----------|--2-2-x-x-x-x-2---2-x-x-x------|--
-|--x-x--2--2--2-2-2--0--|------------0----|--3-3-x-x-x-x-3-3-3-x-x-x-3-3--|--
-|-------0--0--0-0-0-----|-----------------|--3-3-x-x-x-x-3-3-3-x-x-x-3-3--|--
-|-----------------------|--3-----3-2---0--|--1-1-x-x-x-x-1-0-1-x-x-x-1-1--|--
Pre-Chorus Stone play line 4x

-|---------------------------------|------------------------------------------
-|---------------------------------|------------------------------------------
-|--2--4--7--5--4--5--2--4--4p2p0*-|------------------------------------------
-|---------------------------------|------------------------------------------
-|---------------------------------|------------------------------------------
-|---------------------------------|------------------------------------------
Mike 3rd and 4th time *w/whammy bar

-|------0--|------------------------------------------------------------------
-|------0--|------------------------------------------------------------------
-|---------|------------------------------------------------------------------
-|--2------|------------------------------------------------------------------
-|--2------|------------------------------------------------------------------
-|--0------|------------------------------------------------------------------
Stone End of 4th time only after 1st Chorus

-|---------------------0----0---------0-0--|---------------------0--5--|------
-|--x-x--5-5-5-5-5-----8----8--x-x-x--7-7--|--x-x--5-5-5-5-5-----8--7--|------
-|--x-x--6-6-6-6-7--0--7--7-7--x-x-x--7-7--|--x-x--6-6-6-6-7--0--7--7--|------
-|--x-x--7-7-7-7-7--0-----0----x-x-x--0-0--|--x-x--7-7-7-7-7--0-----0--|------
-|-------0-0-0-0-0-------------------------|-------0-0-0-0-0-----------|------
-|-----------------------------------------|---------------------------|------
Chorus Stone 3x 4th time
-|------------------------|------------------------|-----------------------|--
-|------------------------|------------------------|-----------------------|--
-|--14-1211-11h12/14-----|--14-1211-11h12/14-----|--14-1211-11h12/14----|--
-|--------------------12--|--------------------14--|--------------------12-|--
-|------------------------|------------------------|-----------------------|--
-|------------------------|------------------------|-----------------------|--
Mike 1st time 2nd time 3rd time

-|------------------|---------------|------------------|------------------|---
-|------------------|---------------|------------------|------------------|---
-|--14-14-1211-12--|--11h12-12/14--|--14-12-11-12-----|--14-14-1211-12--|---
-|------------------|---------------|--------------12--|------------------|---
-|------------------|---------------|------------------|------------------|---
-|------------------|---------------|------------------|------------------|---
Solo Mike (Studio Version)

-|---------------|------------------|-----------------------------------------
-|---------------|------------------|-----------------------------------------
-|--11-12/14-12--|--------11-12-11--|-----------------------------------------
-|---------------|--12h14-----------|-----------------------------------------
-|---------------|------------------|-----------------------------------------
-|---------------|------------------|-----------------------------------------


-|-------------------|---------------|---------------------|------------------
-|-------------------|---------------|--------15-----------|------------------
-|--14--14-1211-12--|--11-12/14-12--|--14b16----14b16r14--|------------------
-|-------------------|---------------|---------------------|------------------
-|-------------------|---------------|---------------------|------------------
-|-------------------|---------------|---------------------|------------------
Mike (SVT Version)

-|--10-------10-----------------|-----------------------------|---------------
-|-----10b12----10b12r10-8-7-8--|--7h8p7h8p7-10-8-7-8-7-------|---------------
-|------------------------------|-----------------------7----|---------------
-|------------------------------|-----------------------------|---------------
-|------------------------------|-----------------------------|---------------
-|------------------------------|-----------------------------|---------------


-|--5---------5----8--8--|-----5------------5----|----------------------------
-|--7--x----8------8--7--|--8-----8-7-5-7/8------|----------------------------
-|--7--x--7-----0--7--8--|--7-----------------7--|----------------------------
-|-----------------------|-----------------------|----------------------------
-|-----------------------|-----------------------|----------------------------
-|-----------------------|-----------------------|----------------------------
Stone Rhythm Under Solo improv. w/all notes 2x
-|---------|---------|------------|-------------------------------------------
-|---------|---------|------------|-------------------------------------------
-|--12p11--|--14p12--|------------|-------------------------------------------
-|---------|---------|--12h14p12--|-------------------------------------------
-|---------|---------|------------|-------------------------------------------
-|---------|---------|------------|-------------------------------------------
Mike Fills During Last Verse

-|-------------------------------------------------------------------------|--
-|-------------------------------------------------------------------------|--
-|-------------------------------------------------------------------------|--
-|-------------------------------------------------------------------------|--
-|-------------------------------------------------------------------------|--
-|-------------------------------------------------------------------------|--
Verse, Post-Verse, then Chorus.

-|------------------------|------------------------|-----------------------|--
-|------------------------|------------------------|-----------------------|--
-|--14-1211-11h12-14-----|--14-1211-11h12-14-----|--14-1211-11h12-14----|--
-|--------------------12--|--------------------14--|--------------------12-|--
-|------------------------|------------------------|-----------------------|--
-|------------------------|------------------------|-----------------------|--
Mikes Fills during Last Chorus

-|------------|---------------|------------------------|----------------------
-|------------|---------------|------------------------|----------------------
-|--14-12-----|--14-12-12-14--|--14-1211-11h12-14-----|----------------------
-|--------12--|---------------|--------------------12--|----------------------
-|------------|---------------|------------------------|----------------------
-|------------|---------------|------------------------|----------------------


-|------------------------|------------------------|--------------------------
-|------------------------|------------------------|--------------------------
-|--14-1211-11h12-14-----|--14-1211-11h12-14-----|--------------------------
-|--------------------14--|--------------------12--|--------------------------
-|------------------------|------------------------|--------------------------
-|------------------------|------------------------|--------------------------


-|--5--x-x------5----|--8--7-----5--|------------5----|--x-x--5------------|--
-|--7--x-x----8------|--8--8--8-----|--8-7-5-8/7------|--x-x--7--7/8-7-5---|--
-|--7--x-x--7-----0--|--7--7--7-----|--------------7--|--x-x--7----------5-|--
-|--0----------------|--------------|-----------------|--------------------|--
-|-------------------|--------------|-----------------|--------------------|--
-|-------------------|--------------|-----------------|--------------------|--
Outro Stone fade...

ACORDES PARA GUITARRA

PIANO UKELELE


COMENTARIOS

Aún no hay comentarios,

¡escribe el primero!

Escribe una pregunta, duda o comentario sobre esta canción, te responderemos a la brevedad.

Las más tocadas de Pearl Jam

Toca una Canción al Azar de Pearl Jam