Life Wasted
Pearl Jam
Acordes

Subida por Ivan
Álbum: Pearl Jam ( 2006)



+A
-A
Intro/Verso

e|----------------------------------| Repete 2x na Intro
B|----------------------------------|
G|-11-------------9-----------------|
D|-11--11-11-11---9--9-9-9----------| Repete 4x no Verso
A|-9---11-11-11---7--9-9-9----------|
E|-----9--9--9-------7-7-7----------|


Pre-Refrão

e|----------------------|---------------------|-9---7-|-9----9---9|
B|----------------------|---------------------|-9---7-|-9----9---9|
G|----------------------|---------------------|-9---8-|-9----9---9|
D|----------------------|---------------------|-11--9-|-11---11-11| x2
A|--4--4-2-4-2--4-2-4-2-|-4--2--4-2-4-2--4-2--|-11--9-|-11---11-11|
E|--2--2-0-2-0--2-0-2-0-|-2--4--2-0-2-0--2-0--|-9---7-|-9----9---9|


Refrão

e|-------------------------------|
B|-------------------------------|
G|-11----------------------------|
D|-11-11-11-11--x3--9-9-9-9------| x3
A|-9--11-11-11------9-9-9-9------|
E|----9--9--9-------7-7-7-7------|


Pre-Refrão


Primeiro Solo

e|---------------------------------|----------------------------|
B|---------------------------------|--12p9----12p9----9--11-9~~-|
G|--11b13b11-9-11-9------11p9----9-|-------11------11-----------|
D|-------------------11-------11---|----------------------------|
A|---------------------------------|----------------------------|
E|---------------------------------|----------------------------|

e|--14p12-14-12b14--------------|--------------------|
B|------------------14-12-14----|--------------------|
G|---------------------------13~|-11-13-11-9----9-11-|
D|------------------------------|------------11------|
A|------------------------------|--------------------|
E|------------------------------|--------------------|

e|--------------------------9~~----|
B|--12p9----9-------9---9---9~~----|
G|-------11---11-9--11b-11---------|
D|---------------------------------|
A|---------------------------------|
E|---------------------------------|


Verso

Interlude
e|--9----7-|
B|--9----7-|
G|--9----8-|
D|--11---9-|
A|--11---9-|
E|--9----7-|


Refrão x2

ACORDES PARA GUITARRA

PIANO UKELELE


COMENTARIOS

Aún no hay comentarios,

¡escribe el primero!

Escribe una pregunta, duda o comentario sobre esta canción, te responderemos a la brevedad.

Las más tocadas de Pearl Jam

Toca una Canción al Azar de Pearl Jam