Compartir


Imprimir FAQ
+A
-A

Texto

Desplazamiento

Transportador

Color de Fondo

Archivos

-A
+A
|---------------------------------------------------------------------------|
|---------------------------------------------------------------------------|
|---------------------------------------------------------------------------|
|---------------------------------------------------------------------------|
|--12-12-12--------15----13-12------------13-13-13----------17----15-13-15--|
|--------------13---------------------------------------------13------------|

|-------------------------------------------------|
|-------------------------------------------------|
|-------------------------------------------------|
|-------------------------------------------------|
|--12-12-12--------15----13---15------------------|
|--------------13-----------------------13--------|

Base : A   D   F#m   E
A
She comes down like a stone
                    D                    F#m   E
But you don't know where from she was thrown
A                                    D        F#m   E
Like a hurling meteor  from miles high
A
Looking for a place to land
        D                              F#m    E
She said ?if you got yourself some sand?
A                                       D          F#m    E
And whatever you've replied she took as...yes
A
She comes after me
         D                   F#m   E
With her newly planted seeds

         A                                               D            F#m   E
And soon you're thrown down on your knees  and then you're dead
A                                  D                 F#m    E
Then before you know  the weeds are obesely overgrown
            A                           D          F#m   E
With all the wild seeds she sows in your sleep
A  C
You gotta know you'll never let her go
A D C                A D C          A D C
She's a lightning bolt  lighting bolt  lightning bolt
...(...)...

Video Clip de Lightning Bolt


ACORDES PARA GUITARRA

PIANO UKELELE
A
D
F#m
E
C


TOP 20: Las más tocadas de Pearl Jam


Toca una Canción al Azar de Pearl Jam

Acordes

Cerrar
A
D
F#m
E
C

22.07

x

175