Love Boat Captain
Pearl Jam
Acordes

Subida por Lennik
Álbum: Riot Act ( 2002)


Más Versiones
Ver. 2 Ver. 3 Ver. 4
+A
-A
intro and verse:
----------------------------------------------
----------------------------------------------
-0--0-0-0--0--0-0-0---------------------------
-2--2-2-2--1--1-1-1---5---5-5-5---3---3-3-3---
-3--3-3-3--3--3-3-3---5---5-5-5---3---3-3-3---
----------------------3---3-3-3---1---1-1-1---

Love Boat Captain Take the reigns,.. steer us towards the clear.here ...
----0--------0--------3------2--------0-----0-----3----2----3---2---
----0--------0--------1------1--------0-----0-----1----1----1---1---
----9--------1--------2------2--------9-----1-----2----2----2---2---
----7--------2--------0------0--------7-----2-----0----0----0---0---
----9--------2------------------------9-----2-----------------------
---0---------0------------------------0-----0-----------------------

G ,F

C Cm G F C
Is this just another phase? Earthquakes making waves
Cm G F C
Trying to shake the cancer off? Stupid human beings
Cm G F
Once you hold the hand of love,.

A C A C9,G
Hold me, and make it the truth
A C A C9,G
That when all is lost there will be you
A C G
Cause to the universe I don't mean a thing
A C G
And there's just one world I still believe ,

And it's love
---------------------------------------------------
---------------------------------------------------
------------------------------------------3-3-3----
------0-2---2-------0-2---2------0-2---2--3-3-3----
----3-----3-------3-----3------3-----3----1-1-1----
--1-------------1------------1---------------------

----------------------------------
-----13--15--13-15-13-------------
--------------------------3-3-3---
--------------------------3-3-3---
--------------------------1-1-1---
----------------------------------

chorus:
C , Cm . G . F (3X)

And the young they can lose ....
----0--------0--------3------2--------0-----0-----3----2----3---2---
----0--------0--------1------1--------0-----0-----1----1----1---1---
----9--------1--------2------2--------9-----1-----2----2----2---2---
----7--------2--------0------0--------7-----2-----0----0----0---0---
----9--------2------------------------9-----2-----------------------
---0---------0------------------------0-----0-----------------------

G,F

A C A C9,G
Hold me, and make it the truth
A C A C9,G
That when all is lost there will be you
A C G
Cause to the universe I don't mean a thing
A C G
And there's just one world I still believe ,
A C,G A C,G
And it's love, love,love,love

(A,C,G)
---------------------------------------------------
---------------------------------------------------
------------------------------------------3-3-3----
------0-2---2-------0-2---2------0-2---2--3-3-3----
----3-----3-------3-----3------3-----3----1-1-1----
--1-------------1------------1---------------------

C Cm
Love boat captain
G F C
Take the reigns,.. steer us towards the clear.
Cm G F C
I know it's already been sung,... can't be said enough.
Cm G F C Cm G
Love is all you need,.. all you need is love,..Love,.. love,...////////////////// ¿Te Animas? Sube una canción a este sitio. //////////////////

ACORDES PARA GUITARRA

PIANO UKELELE
G
F
C
Cm
A
C9


COMENTARIOS

Aún no hay comentarios,

¡escribe el primero!

Escribe una pregunta, duda o comentario sobre esta canción, te responderemos a la brevedad.

Las más tocadas de Pearl Jam

Toca una Canción al Azar de Pearl Jam
G
F
C
Cm
A
C9