MFC
Pearl Jam
Acordes

Subida por ander25
Álbum: Yield ( 1998)



Cambiar Cifrado
Americano Latino

Cambiar Tonalidad
-1 +1

Partir Pantalla Imprimir FAQ

+A
-A
Ed - Dropped D (DADGBE)

-|----------------------------------------|---------------------------------|-
-|---------3-----3--3--3------------------|---------3-----3--3--3--3-----3--|-
-|----0----0--0--0--0--0--0---0--5-4-0-0--|----0----0--0--0--0--0--0--0--0--|-
-|--5---5-----5-------------5-------------|--5---5-----5--------------5-----|-
-|----------------------------------------|---------------------------------|-
-|----------------------------------------|---------------------------------|-
Intro Ed 3x
-|-----------------------------------|----------------------------------|-----
-|-----------------------------------|--8--83--------------------------|-----
-|-----------------------------------|---------5--7--5h7p5p0------------|-----
-|--5--5--5--5--5--5--5--5--5--5--5--|------------------------5--7------|-----
-|-----------------------------------|----------------------------------|-----
-|-----------------------------------|----------------------------------|-----
Mike heavy palm mute Stone

-|----------------|--------------------|--------3---------|---------------|---
-|----------------|--3-3-3-3---3-3-----|----------3---3---|---------------|---
-|----------0--0--|--2-2-2-2b-r2-2--0--|-----0------0---0-|---------------|---
-|--0----0--0--0--|--0-0-0-0---0-0--0--|--0--0------------|---------------|---
-|--x----x--x--x--|--------------------|--x--x------------|---------------|---
-|--3----3--3--3--|--------------------|--3--3------------|---------------|---
Verse Ed 3x Ed
-|-----------------|--1-1-1-1-1-1-1--|-----------------|--1-1-1-1-1-1-1--|----
-|-----------------|--1-1-1-1-1-1-1--|-----------------|--1-1-1-1-1-1-1--|----
-|--3-3-3-3-3-3-3--|--2-2-2-2-2-2-2--|--3-3-3-3-3-3-3--|--2-2-2-2-2-2-2--|----
-|--3-3-3-3-3-3-3--|--3-3-3-3-3-3-3--|--3-3-3-3-3-3-3--|--3-3-3-3-3-3-3--|----
-|--1-1-1-1-1-1-1--|-----------------|--1-1-1-1-1-1-1--|-----------------|----
-|-----------------|-----------------|-----------------|-----------------|----
Chorus Ed and Mike

-|-----------------|-----------------|-----------------|-----------------|----
-|-----------------|-----------------|-----------------|-----------------|----
-|--3-3-3-3-3-3-3--|-----------------|--3-3-3-3-3-3-3--|--3-3-3-3-3-3-3--|----
-|--3-3-3-3-3-3-3--|--3-3-3-3-3-3-3--|--3-3-3-3-3-3-3--|--3-3-3-3-3-3-3--|----
-|--1-1-1-1-1-1-1--|--3-3-3-3-3-3-3--|--1-1-1-1-1-1-1--|--1-1-1-1-1-1-1--|----
-|-----------------|--1-1-1-1-1-1-1--|-----------------|-----------------|----
Stone

-|---------------------------|---------|---------|----------------------------
-|---------------------------|--1-1-1--|---------|----------------------------
-|--3-3-3-3-3-3-3-3-3-3-3-3--|--0-0-0--|--5-5-5--|----------------------------
-|--3-3-3-3-3-3-3-3-3-3-3-3--|--2-2-2--|--5-5-5--|----------------------------
-|--1-1-1-1-1-1-1-1-1-1-1-1--|--3-3-3--|--3-3-3--|----------------------------
-|---------------------------|---------|---------|----------------------------
All Gtrs. Stone Ed and Mike

-|----------------------------------|------------------------------|----------
-|---------3-----3-3----------------|---------3-----3-3-3-3-----3--|----------
-|----0----0---------0---0-5-4-0-0--|----0----0--0--0-0-0-0--0--0--|----------
-|--5---5-----5--------5------------|--5---5-----5-----------5-----|----------
-|----------------------------------|------------------------------|----------
-|----------------------------------|------------------------------|----------
Post-Chorus (intro) Ed alternate between the two

-|-------------------------------------|--------------------------------------
-|-------------------------------------|--------------------------------------
-|-------------------------------------|--------------------------------------
-|---5--5--5--5--5--5--5--5--5--5--5---|--------------------------------------
-|-------------------------------------|--------------------------------------
-|-------------------------------------|--------------------------------------
Mike heavy PM

-|--3----3-------------3-------------------------------------------|----------
-|--3----3-------------3-------------------------------------------|----------
-|--5b7--5b7r5p4--5-4--5b7r5p4--5-4--2-0-------0--0-5-4-0-2b4--r2--|----------
-|---------------------------------------2-3-5---------------------|----------
-|-----------------------------------------------------------------|----------
-|-----------------------------------------------------------------|----------
Stone

-|--------------------------|-----------------------|-------------------------
-|--------------------------|-----------------------|-------------------------
-|--5-4-5-4-5-4-5-4-5-4-----|--5-7-5-7-5-7-5-7-5-7--|-------------------------
-|--------------------------|-----------------------|-------------------------
-|--------------------------|-----------------------|-------------------------
-|--------------------------|-----------------------|-------------------------
Pre-Chorus Fill By Stone Chorus Fills By Stone

-|----------------------------------------------------|-----------------------
-|---10b12--12r10--8h10p8-----------------------------|-----------------------
-|------------------------9---------------------------|-----------------------
-|--------------------------10h12-10h12p109-7-9-/12--|-----------------------
-|----------------------------------------------------|-----------------------
-|----------------------------------------------------|-----------------------
Stone Solo

-|-------------------------------------------------------|--------------------
-|-------------------------------------------------------|--------------------
-|--2p0-0---2p0---2p0--0---0--2p0---2p0--0---0--2p0-0----|--------------------
-|--------0-----0--------0--------0--------0----------0--|--------------------
-|-------------------------------------------------------|--------------------
-|-------------------------------------------------------|--------------------
*Listen to Cd

-|----------------------|-----------------------------------------------------
-|----------------------|-----------------------------------------------------
-|----2---2---4--5/75--|-----------------------------------------------------
-|--0---0---0-----------|-----------------------------------------------------
-|----------------------|-----------------------------------------------------
-|----------------------|-----------------------------------------------------


-|------------------------------------------------|---------------------------
-|------------------------------------------------|---------------------------
-|------------------------------------------------|---------------------------
-|---3b4--0---3b4--0---3b4--5--7--5--3--0--3--0---|---------------------------
-|------------------------------------------------|---------------------------
-|------------------------------------------------|---------------------------


-|-----------------------------|----------------------------------------------
-|--3-----3-----------------8--|----------------------------------------------
-|--5b7-7---5b7-7-7-7-7b9r7----|----------------------------------------------
-|-----------------------------|----------------------------------------------
-|-----------------------------|----------------------------------------------
-|-----------------------------|----------------------------------------------
Hold Bend----------|

-|-------------------------------------|--------------------------------------
-|---3--3--3--3--3--3--3--3--3--3--3---|--------------------------------------
-|---0--0--0--0--0--0--0--0--0--0--0---|--------------------------------------
-|---5--5--5--5--5--5--5--5--5--5--5---|--------------------------------------
-|-------------------------------------|--------------------------------------
-|-------------------------------------|--------------------------------------
*Mike (strum till end)

ACORDES PARA GUITARRA

PIANO UKELELE


COMENTARIOS

Aún no hay comentarios,

¡escribe el primero!

Escribe una pregunta, duda o comentario sobre esta canción, te responderemos a la brevedad.

Las más tocadas de Pearl Jam

Toca una Canción al Azar de Pearl Jam