Mind Your Manners (Acordes)

Pearl Jam

Full Álbum: Lightning Bolt (2013)
Subida por rubim3708

Compartir


Imprimir FAQ
+A
-A

Texto

Desplazamiento

Transportador

Color de Fondo

Archivos

-A
+A
Intro :

E|--------------------------------------------------------------------------|
B|--------------------------------------------------------------------------|
G|--------------------------------------------------------------------------|
D|--10-9-9-9---9-9-9-10-9-9-9---9-9-9-10-9-9-9------------------------------|
A|--------------------------------------------------------------------------|
E|--------------------------------------------------------------------------|


Riff 1

  I got an unfortunate feeling i've  been beated down
E|--------------------------------------------------------------------------
B|--------------------------------------------------------------------------
G|----------------10-9-7----------------------------------------------------
D|---9-9-9-9-9-9--10-9-7--9-9-9-9-9-9--10-9-7-9-----------------------------
A|---9-9-9-9-9-9--8--7-5--9-9-9-9-9-9--10-9-7-9-----------------------------
E|---7-7-7-7-7-7----------7-7-7-7-7-7--8--7-5-7-----------------------------

  I feel like i don't believe and now the trust is coming out
E|--------------------------------------------------------------------------
B|--------------------------------------------------------------------------
G|----------------10-9-7----------------------------------------------------
D|---9-9-9-9-9-9--10-9-7--9-9-9-9-9-9--10-9-7-9-----------------------------
A|---9-9-9-9-9-9--8--7-5--9-9-9-9-9-9--10-9-7-9-----------------------------
E|---7-7-7-7-7-7----------7-7-7-7-7-7--8--7-5-7-----------------------------

  What they'v'e taken is more than a vow
E|--------------------------------------------------------------------------
B|--------------------------------------------------------------------------
G|----------------10-9-7----------------------------------------------------
D|---9-9-9-9-9-9--10-9-7--9-9-9-9-9-9--10-9-7-9-----------------------------
A|---9-9-9-9-9-9--8--7-5--9-9-9-9-9-9--10-9-7-9-----------------------------
E|---7-7-7-7-7-7----------7-7-7-7-7-7--8--7-5-7-----------------------------

  They've taken your innocence and now they throw on the burning fire
E|--------------------------------------------------------------------------
B|--------------------------------------------------------------------------
G|----------------10-9-7----------------------------------------------------
D|---9-9-9-9-9-9--10-9-7--9-9-9-9-9-9--10-9-7-------------------------------
A|---9-9-9-9-9-9--8--7-5--9-9-9-9-9-9--10-9-7-------------------------------
E|---7-7-7-7-7-7----------7-7-7-7-7-7--8--7-5-------------------------------

  All along they're saying
  Mind your manners
E|-----------------
B|-----------------
G|-7---5-7-5---5---
D|-7-7-5-7-5-7-5---     (2X)
A|-5-7-3-5-3-7-3---
E|---5-------5-----

  I caught mysef believing that i needed god
E|--------------------------------------------------------------------------
B|--------------------------------------------------------------------------
G|----------------10-9-7----------------------------------------------------
D|---9-9-9-9-9-9--10-9-7--9-9-9-9-9-9--10-9-7-------------------------------
A|---9-9-9-9-9-9--8--7-5--9-9-9-9-9-9--10-9-7-------------------------------
E|---7-7-7-7-7-7----------7-7-7-7-7-7--8--7-5-------------------------------

  And if it's out there somewhere we sure could use it now
E|--------------------------------------------------------------------------
B|--------------------------------------------------------------------------
G|----------------10-9-7----------------------------------------------------
D|---9-9-9-9-9-9--10-9-7--9-9-9-9-9-9--10-9-7-------------------------------
A|---9-9-9-9-9-9--8--7-5--9-9-9-9-9-9--10-9-7-------------------------------
E|---7-7-7-7-7-7----------7-7-7-7-7-7--8--7-5-------------------------------

  Tried my patience, my patience tried
E|--------------------------------------------------------------------------
B|--------------------------------------------------------------------------
G|----------------10-9-7----------------------------------------------------
D|---9-9-9-9-9-9--10-9-7--9-9-9-9-9-9--10-9-7-------------------------------
A|---9-9-9-9-9-9--8--7-5--9-9-9-9-9-9--10-9-7-------------------------------
E|---7-7-7-7-7-7----------7-7-7-7-7-7--8--7-5-------------------------------

  This world's no longer good enough, that makes me wanna cry
E|--------------------------------------------------------------------------
B|--------------------------------------------------------------------------
G|----------------10-9-7----------------------------------------------------
D|---9-9-9-9-9-9--10-9-7--9-9-9-9-9-9--10-9-7-------------------------------
A|---9-9-9-9-9-9--8--7-5--9-9-9-9-9-9--10-9-7-------------------------------
E|---7-7-7-7-7-7----------7-7-7-7-7-7--8--7-5-------------------------------

  All along they're saying
  Mind your manners
  Always waiting!
E|-----------------
B|-----------------
G|-7---5-7-5---5---
D|-7-7-5-7-5-7-5---     (4X)
A|-5-7-3-5-3-7-3---
E|---5-------5-----

  Self realizing that I'm physically redeemed
  May not live another life
  May not solve our mystery
  Right around the corner
  Could be bigger than ourselves
  We could wail it to the sky
  Or we could something else
E|-----------
B|-----------
G|-----------
D|7----5----4     (2X)
A|7----5----4
E|5----3----2

Nessa parte, enquanto é feito o solo, a guitarra base continua no primeiro riff

E|-----------------------------------------------------------------------------------------
B|-----------------------------------------------------------------------------------------
G|--14-14-14-14-14-14-14-14-14-14-14-14-----------------16-16-16-16-19-19-19-19-18h19p18---
D|--------------------------------------14-16-12---14-14---------------------------------16
A|-----------------------------------------------------------------------------------------
E|-----------------------------------------------------------------------------------------

E|--------------------------------------------------------------22-------------------------
B|-----------------------------------------------------------------------------------------
G|-----------------------------------------------------------------------------------------
D|---------7-7-7-7-------------------------------------------------------------------------
A|--9-9-9-9--------11/12/11----------------------------------------------------------------
E|--------------------------9-----2-2-2-2-2-2-2-2-5-5-5-7-7-7-7----------------------------

E|---19-19-19-19-19-19-19-21-21b22-0-0--19-19-19-19-19-19-19-21-21b22-0-0
B|-----------------------------------------------------------------------
G|-----------------------------------------------------------------------
D|-----------------------------------------------------------------------
A|-----------------------------------------------------------------------
E|-----------------------------------------------------------------------

  All along they're saying
  Mind your manners
  Always waiting!
E|-----------------
B|-----------------
G|-7---5-7-5---5---
D|-7-7-5-7-5-7-5---     (4X)
A|-5-7-3-5-3-7-3---
E|---5-------5-----


Self realizing that I'm physically redeemed
  May not live another life
  May not solve our mystery
  Right around the corner
  Could be bigger than ourselves
  We could wail it to the sky
  Or we could something else
E|-----------
B|-----------
G|-----------
D|7----5----4     (2X)
A|7----5----4
E|5----3----2

  Go to heaven, that swell.
  How do you like, living hell?
E|---------------------------------------------------------
B|---------------------------------------------------------
G|---------------9-9-9-9-9-9----------------7---7--7---7---
D|--9-9-9-9-9-9--9-9-9-9-9-9--5-5-5-5-5-5---7-7-7--7-7-7---
A|--9-9-9-9-9-9--7-7-7-7-7-7--5-5-5-5-5-5---5-7-5--5-7-5---
E|--7-7-7-7-7-7---------------3-3-3-3-3-3-----5------5-----
  Go to heaven, that swell.
  How do you like, living hell?
E|---------------------------------------------------------
B|---------------------------------------------------------
G|---------------9-9-9-9-9-9----------------7---7--7---7---
D|--9-9-9-9-9-9--9-9-9-9-9-9--5-5-5-5-5-5---7-7-7--7-7-7---
A|--9-9-9-9-9-9--7-7-7-7-7-7--5-5-5-5-5-5---5-7-5--5-7-5---
E|--7-7-7-7-7-7---------------3-3-3-3-3-3-----5------5-----

  Go to heaven, that swell.
  How do you like, living hell?
E|---------------------------------------------------------
B|---------------------------------------------------------
G|---------------9-9-9-9-9-9----------------7---7--7---7---
D|--9-9-9-9-9-9--9-9-9-9-9-9--5-5-5-5-5-5---7-7-7--7-7-7---
A|--9-9-9-9-9-9--7-7-7-7-7-7--5-5-5-5-5-5---5-7-5--5-7-5---
E|--7-7-7-7-7-7---------------3-3-3-3-3-3-----5------5-----
  LIVING HELL!!!
E|---------------------------------------------------------
B|---------------------------------------------------------
G|----7---7--7---7-----------------------------------------
D|----7-7-7--7-7-7-----9-----------------------------------
A|---5-7-5--5-7-5-----9------------------------------------
E|------5------5-------7-----------------------------------

Video Clip de Mind Your Manners


ACORDES PARA GUITARRA

PIANO UKELELE


TOP 20: Las más tocadas de Pearl Jam


Toca una Canción al Azar de Pearl Jam

Acordes

Cerrar

06.35

x

269