Oceans
Pearl Jam
Acordes

Subida por MAU09
Álbum: Ten ( 1991)


Más Versiones
Ver. 2 Ver. 3 Ver. 4 Ver. 5 Ver. 6

Cambiar Cifrado
Americano Latino

Cambiar Tonalidad
-1 +1

Partir Pantalla Imprimir FAQ

+A
-A
 
Verses

D C#sus4 C# D C#sus4
-2------------------------------------------9---------9-------
-3------------7---6----------3--------------9---------9-------
-2------------6---6----------2--------------11--------10------
-0------------6---6----------4--------------11--11----11------
--------------4---4-------------------------------------------
--------------------------------------------------------------
Hold on... thread The currents ... Glide me towards


D C#sus4 C# D C#sus4 C# C
------------9----9------------------9--------9----------------
-7----------9----9---------7--------9--------9-----5----------
-7----------11---10--------7--------11-------10----5----------
-7----------11---11--------7--------11-------11----5----------
-5-------------------------5-----------------------3----------
--------------------------------------------------------------
you ... left And we're ... to dream of the next


Chorus

Cb5 C5 Cb5 C Cb5 C5 Cb5 C
-8----8----8------8--8--8----8---8--8----8----8-----8----------
-7----8----7------5--5--5----7---7--8----7----5-----5----------
-5----5----5------5--5--5----5---5--5----5----5-----5----------
---------------------------------------------------------------
---------------------------------------------------------------
---------------------------------------------------------------
Uh -uh

Cb5 C5 Cb5 C5 Cb5 C
-8---8---8-----8----8--8--8---8---8--8----8---8----------------
-7---7---8-----7----7--7--7---7---8--7----5---5----------------
-5---5---5-----5----5--5--5---5---5--5----5---5----------------
---------------------------------------------------------------
---------------------------------------------------------------
---------------------------------------------------------------
Uh -oh the next ...



Bridge

D
-----------------------------------------------------------
-3-----3---3----3-----3---3--------3---3---3--3---3---3----
-2-----2---2----2-----2---2--------2---2---2--2---2---2----
-4-----4---4----4-----4---4--------4---4---4--4---4---4----
-5-----5---5-----------------------------------------------
-----------------------------------------------------------
more... ooh...


Cb5 D
--8--8--8--8--8--8--8--------------------------------------
--7--7--7--7--7--7--7----3----------------------------------
--5--5--5--5--5--5--5----2----------------------------------
-------------------------4------------------------------
---------------------------------------------------------------
---------------------------------------------------------------
ooh...

ACORDES PARA GUITARRA

PIANO UKELELE


COMENTARIOS

Aún no hay comentarios,

¡escribe el primero!

Escribe una pregunta, duda o comentario sobre esta canción, te responderemos a la brevedad.

Las más tocadas de Pearl Jam

Toca una Canción al Azar de Pearl Jam