Of The Girl
Pearl Jam
Acordes

Subida por 241088ed
Álbum: Binaural ( 2000)



+A
-A
Essa musica é foda, tanto de tocar como de ouvir, a guitarra dois eh muuuuito baixa, entaum aí eh com vc!
demorei pra caralh opra fazer essa tab! foram dias sem dormir, quase me matei! mas aí está, a mais completa que vc pode achar!
vc vai precisar de 3 guitarras, isso quer dizer, trabalho dobrado (triplicasdo) pra quem toca sozinho, meio impossivel!
mas blz, tah entregue pra vcs brincarem um pouquinho!



desca meio tom(DbAbDbGbBbEb)
talves a G2 naum precise dessa afinacao, eu aconselho a Standart (EADGBE)

-|---------0---------------------------------------------------------------|--
-|-------3-----------------------------------------------------------------|--
-|--------------2---2---2---2---5---2---2---2---5---2---2---2---5---2---2--|--
-|----0-------0---0---0---0---0---0---0---0---0---0---0---0---0---0---0----|--
-|-------------------------------------------------------------------------|--
-|-------------------------------------------------------------------------|--
G1

-|-0----------7-8-------------------5---5---5---5---5---5---5---5---5---5--|--
-|-0----------------0-------------3---3---3---3---3---3---3---3---3---3----|--
-|-0-----------------------------------------------------------------------|--
-|-------------------------------------------------------------------------|--
-|-------------------------------------------------------------------------|--
-|-------------------------------------------------------------------------|--
G2

-|--------------------------------------------------------------------------|-
-|--------------------------------------------------------------------------|-
-|---2---5---2---2---5---2---2---4---5---2---2---2---5---2---2---5---2---2--|-
-|-0---0---0---0---0---0---0---0---0---0---0---0---0---0---0---0---0---0----|-
-|--------------------------------------------------------------------------|-
-|--------------------------------------------------------------------------|-
G1

-|---5---5---5---5---5---5---5---5---5---5---5---5---5---5---5---5---5---5--|-
-|-3---3---3---3---3---3---3---3---3---3---3---3---3---3---3---3---3---3----|-
-|--------------------------------------------------------------------------|-
-|--------------------------------------------------------------------------|-
-|--------------------------------------------------------------------------|-
-|--------------------------------------------------------------------------|-
G2

-|---------------------------------------5-------8--10----------------------|-
-|-------1------------------------------------------------------------------|-
-|-------4-----------------------4---5--------------------------------------|-
-|--------------------------------------------------------------------------|-
-|--------------------------------------------------------------------------|-
-|--------------------------------------------------------------------------|-
G3

-|----------0---------0-----------------------------------------------------|-
-|-----------------1-----1----1--1----------0--1--------0h1p0--0----0--1----|-
-|---2---4-----5-----------2-------------2--------2--2-----------2-------2--|-
-|-0---0--------------------------------------------------------------------|-
-|--------------------------------------------------------------------------|-
-|--------------------------------------------------------------------------|-
G1 (Baixo e batera entram agora)

-|---5------0-------0----------------------------------5------5---5---5---5-|-
-|-3---3-0----1--------1--------------------0--1-----3------3---3---3---3---|-
-|--------------2---------------------------------2-------------------------|-
-|--------------------------------------------------------------------------|-
-|--------------------------------------------------------------------------|-
-|--------------------------------------------------------------------------|-
G2

-|------------------------------------------------------------------10------|-
-|--------------------------------------10--------------------------10------|-
-|---------------------------------10-x-10----------------12/14-----10------|-
-|---------------------------------10-x-10-12-------------------------------|-
-|--------------------------------------------------------------------------|-
-|--------x-x-x-0--0--0--0---0--0-------------0----0--0----------0-----0--0-|-
G3

-|--------------------------------------------------------------------------|-
-|--------------0--1-------0--0-------0--1----------------------------------|-
-|--2-0------2-------2--2-------2--2-------2---2--0-------2--2--0--------2--|-
-|------3-0------------------------------------------3-0-----------3--0-----|-
-|--------------------------------------------------------------------------|-
-|--------------------------------------------------------------------------|-
G1

-|--5-3------5---8--5---5------5--8----5------5--8----5---5--5--3--------5--|-
-|------6-3---------------3--3-------3---3--3-------3---3----------6--3-----|-
-|--------------------------------------------------------------------------|-
-|--------------------------------------------------------------------------|-
-|--------------------------------------------------------------------------|-
-|--------------------------------------------------------------------------|-
G2

-|--------------------------------------------------------------------------|-
-|--10--10----------------10--10-----10-10-10b*---12-10------10-12-10----10-|-
-|--10--10----------------10--10-----10-10-10b*---12-10------10-12-10----10-|-
-|---------12--------------------12------------12-------12-12---------12----|-
-|---------------------12---------------------------------------------------|-
-|---------------------12---------------------------------------------------|-
G3 *Um bend Duplo
-|------------------------------------------------------------|---------------
-|------------------------------------------------------------|---------------
-|--2-0-------2---2-0-------2--2-0-------2---2--0---------2---|---------------
-|-------3-0-----------3-0----------3-0------------3--0-------|---------------
-|------------------------------------------------------------|---------------
-|------------------------------------------------------------|---------------
G1 Oh he deals em off

-|--5-3-------5---5-3-------5--5-3-------5---5--3---------5---|---------------
-|-------6-3-----------6-3----------6-3------------6--3-------|---------------
-|------------------------------------------------------------|---------------
-|------------------------------------------------------------|---------------
-|------------------------------------------------------------|---------------
-|------------------------------------------------------------|---------------
G2

-|------------------------------------------------------------|---------------
-|-------------10--x-10-------10---------------------------10-|---------------
-|-------------10--x-10-------10---------------------------10-|---------------
-|-1210-12-12----------12-12----1210-12-12------------------|---------------
-|--x-----x--x--------------------x-----x--x------------------|---------------
-|-1210-12-12-------------------1210-12-12------------------|---------------
G3

-|-----------------------------------------------------------------|----------
-|-----------------------------------------------------------------|----------
-|--2--0--------2---2--0--------2---2--0--------2---2--0--------2--|----------
-|--------3--0------------3--0------------3--0------------3--0-----|----------
-|-----------------------------------------------------------------|----------
-|-----------------------------------------------------------------|----------
G1 Off the top ties them off fills it up

-|--5--3--------5---5--3------------5--3--------5---5--3--------5--|----------
-|--------6--3------------6--3--6-3-------6--3------------6--3-----|----------
-|-----------------------------------------------------------------|----------
-|-----------------------------------------------------------------|----------
-|-----------------------------------------------------------------|----------
-|-----------------------------------------------------------------|----------
G2

-|-----------------------------------------------------------------|----------
-|--------------------------------------------10-------------------|----------
-|-------------------------------10-----------10-------------------|----------
-|-------------------------------12--------------12----------------|----------
-|-----------------------------------------------------------------|----------
-|-----------------------------------------------------------------|----------
G3

-|------------------------------------------------------------------|---------
-|------------------------------------------------------------------|---------
-|---2--0--------2---2--0--------2---2--0--------2---2--0--------2--|---------
-|---------3--0------------3--0------------3--0------------3--0-----|---------
-|------------------------------------------------------------------|---------
-|------------------------------------------------------------------|---------
G1 With his past, gets carried away oh half his life

-|---5--3--------5---5--3--------5---5--3--------5---5--3--------5--|---------
-|---------6--3------------6--3------------6--3------------6--3-----|---------
-|------------------------------------------------------------------|---------
-|------------------------------------------------------------------|---------
-|------------------------------------------------------------------|---------
-|------------------------------------------------------------------|---------
G2

-|------------------------------------------------------------------|---------
-|----------------------------------12-10---------------------------|---------
-|----------------------------------12-10-------12-----------------|---------
-|----------------------------------------12-12---------------------|---------
-|------------------------------------------------------------------|---------
-|------------------------------------------------------------------|---------
G3

-|-----------------------------------------------------------------|----------
-|-----------------------------------------------------------------|----------
-|--2--0--------2---2--0--------2---2--0--------2---2--0--------2--|----------
-|--------3--0------------3--0------------3--0------------3--0-----|----------
-|-----------------------------------------------------------------|----------
-|-----------------------------------------------------------------|----------
G1 A-hand me down wasted away oh he fills it up

-|--5--3--------5---5--3--------5---5--3--------5---5--3--------5--|----------
-|--------6--3------------6--3------------6--3------------6--3-----|----------
-|-----------------------------------------------------------------|----------
-|-----------------------------------------------------------------|----------
-|-----------------------------------------------------------------|----------
-|-----------------------------------------------------------------|----------
G2

-|--------------10-----10-----------10-----------------------------|----------
-|--------------10-----10-12-----10-10-----------------------------|----------
-|----------------12-10---12-----10-10-12--------------------------|----------
-|--------------------------12-12---------12-12-12-----------------|----------
-|----------------------------------------------12-----------------|----------
-|-----------------------------------------------------------------|----------
G3

-|------------------------------------------------------------------|---------
-|---------------------------------------------------0--1-----------|---------
-|---2--0--------2---2--0--------2---2--0--------2--------2-----2---|---------
-|---------3--0------------3--0------------3--0---------------0---0-|---------
-|------------------------------------------------------------------|---------
-|------------------------------------------------------------------|---------
G1 With the love of a girl

-|---5--3--------5---5--3--------5---5--3--------5---7--8-5-----5---|---------
-|---------6--3------------6--3------------6--3---------------3---3-|---------
-|------------------------------------------------------------------|---------
-|------------------------------------------------------------------|---------
-|------------------------------------------------------------------|---------
-|------------------------------------------------------------------|---------
G2

-|------------------------------------------------------------------|---------
-|-----------------10--------------------------------10-------------|---------
-|-12b14r12-10-----10--------------------------------10-------------|---------
-|-------------12--------------------------------x-----------12-----|---------
-|-----------------------------------------x-x---x------------------|---------
-|-----------------------------------------x-x---x------------------|---------
G3

-|------------------------------------------------------|---------------------
-|--0---0-------------0---1-----------------------------|---------------------
-|---------2-----2-----------2------2----2--0--------2--|---------------------
-|-------------0---0--------------0---0--------3--0-----|---------------------
-|------------------------------------------------------|---------------------
-|------------------------------------------------------|---------------------
G1

-|--5-3----5-----5----7---8--5------5----5--3--------5--|---------------------
-|-------3-----3---3--------------3---3--------6--3-----|---------------------
-|------------------------------------------------------|---------------------
-|------------------------------------------------------|---------------------
-|------------------------------------------------------|---------------------
-|------------------------------------------------------|---------------------
G2

-|------------------------------------------------------|---------------------
-|--12-10--------10--------x-10b--------------------12--|---------------------
-|--12-10--------10--------x-10b--------------------12--|---------------------
-|--------12-12-----------------12------12-10-----------|---------------------
-|------------------------------------------------------|---------------------
-|--------------------------------------------12-12-----|---------------------
G3

-|-----------------------------------------------------------------------|----
-|--0---1---------------0h1---0-------------0--1-------------------------|----
-|---------2-------2-------------2-----2---------2----2---2--0--------2--|----
-|---------------0---0---------------0---0----------0---0-------3--0-----|----
-|-----------------------------------------------------------------------|----
-|-----------------------------------------------------------------------|----
G1 Oh

-|--7---8--5-------5----5--3-----5-----5----7--8-5----5---5--3--------5--|----
-|---------------3---3--------3------3---3----------3---3-------6--3-----|----
-|-----------------------------------------------------------------------|----
-|-----------------------------------------------------------------------|----
-|-----------------------------------------------------------------------|----
-|-----------------------------------------------------------------------|----
G2

-|-----------------------------------------------------------------------|----
-|--10----------------------------------------------10-13b15r13-------x--|----
-|--10----------------x-12------12b14r12p10---------10----------10----x--|----
-|---------10--12-----x-12-10-10-----------12-10h12-------------10-12-x--|----
-|-----------------------------------------------------------------------|----
-|-----------------------------------------------------------------------|----
G3

-|-----------------------------------------------------------------|----------
-|-----------------------------------------------------------------|----------
-|--2--0--------2---2--0--------2---2--0--------2---2--0--------2--|----------
-|--------3--0------------3--0------------3--0------------3--0-----|----------
-|-----------------------------------------------------------------|----------
-|-----------------------------------------------------------------|----------
G1 He lifted along drilled the pain with money to burn

-|--5--3--------5---5--3--------5---5--3--------5------------------|----------
-|--------6--3------------6--3------------6--3---------------------|----------
-|-----------------------------------------------------------------|----------
-|-----------------------------------------------------------------|----------
-|-----------------------------------------------------------------|----------
-|-----------------------------------------------------------------|----------
G2

-|-----------------------------------------------------------------|----------
-|---12-----------------------------10---------------10--12-----10-|----------
-|---12-----------------------------10--10h12p10-----10--12-----10-|----------
-|-------------12-------------------------------12-12--------12----|----------
-|-----------------------------------------------------------------|----------
-|-----------------------------------------------------------------|----------
G3

-|--------0-------|-1----------------0-------------------0-----------|--------
-|---3--1---1-0-1-|-1---1----1-------1-1---1--3----3--1-----1--0--1--|--------
-|-2--------------|-2----------------2---2------2--------------------|--------
-|----------------|-3----------------2-------------------------------|--------
-|----------------|-x----------------0-------------------------------|--------
-|----------------|-3------------------------------------------------|--------
G1 How he makes his getaway

-|--------0-------|-5----------------5-------------------------------|--------
-|-3-3--1---1-0-1-|-6----------------5---------3---------------------|--------
-|----------------|-5----------------5---------2---------------------|--------
-|----------------|-7----------------7---------0---------------------|--------
-|----------------|-8----------------7---------0---------------------|--------
-|----------------|------------------7---------0---------------------|--------
G2

-|----------------|-1----------/-----5------------------------------|--------
-|-10---x---------|-1----------/-----5--------3---------------------|--------
-|-10---x---------|-2----------/-----5--------2---------------------|--------
-|----------------|-3----------/-----7--------0---------------------|--------
-|----------------|----------------------------0---------------------|--------
-|----------------|----------------------------0---------------------|--------
G3

-|--1----------------0-------------1-------------0---------------12^--|-------
-|--1---1----1-------1----1---1----1----1---1----1----1---1---1-------|-------
-|--2----------------2-------------2-------------2--------------------|-------
-|--3----------------2-------------3-------------2--------------------|-------
-|--x----------------0-------------x-------------0--------------------|-------
-|--3------------------------------3----------------------------------|-------
G1 How he makes his getaway

-|--5----------------5-------------5-------------5--------------------|-------
-|--6----------------5-------------6-------------5--------------------|-------
-|--5----------------5-------------5-------------5--------------------|-------
-|--7----------------7-------------7-------------7--------------------|-------
-|--8----------------7-------------8-------------7--------------------|-------
-|-------------------7---------------------------7--------------------|-------
G2

-|--1----------/-----5-------------1--------/----5--------------------|-------
-|--1----------/-----5-------------1--------/----5--------------------|-------
-|--2----------/-----5-------------2--------/----5--------------------|-------
-|--3----------/-----7-------------3--------/----7--------------------|-------
-|--------------------------------------------------------------------|-------
-|--------------------------------------------------------------------|-------
G3

-|----------------------------------------------------------------|-----------
-|-------0--1--------0h1p0--0--------0--1-------------------------|-----------
-|----2--------2--2------------2--2--------2----2---2--0--------2-|-----------
-|-0------------------------------------------0---0-------3--0----|-----------
-|----------------------------------------------------------------|-----------
-|----------------------------------------------------------------|-----------
G1

-|----5--7--8--5--5--5--3------5--5--7--8--5----5---5--3--------5-|-----------
-|-3------------------------3-----------------3---3-------6--3----|-----------
-|----------------------------------------------------------------|-----------
-|----------------------------------------------------------------|-----------
-|----------------------------------------------------------------|-----------
-|----------------------------------------------------------------|-----------
G2

-|----------------------------------------------------------------|-----------
-|----------------------------------------------------------------|-----------
-|-------------------------------------------12p10h12--12p10h12---|-----------
-|------------12--0-0--12--12--12--12--x-12----------12--------12-|-----------
-|----------------------------------------------------------------|-----------
-|----------------------------------------------------------------|-----------
G3

-|-------------------------------------------------------------------------|--
-|---0--1--------------0h1--0--------------0--1----------------------------|--
-|---------2-----2-------------2-----2-----------2-----2-----2--0--------2-|--
-|------------0-----0-------------0-----0-----------0-----0--------3--0----|--
-|-------------------------------------------------------------------------|--
-|-------------------------------------------------------------------------|--
G1

-|---7--8--5-----5-----5-3-----5-----5-----7--8--5-----5-----5--3--------5-|--
-|------------3-----3-------3-----3-----3-----------3-----3--------6--3----|--
-|-------------------------------------------------------------------------|--
-|-------------------------------------------------------------------------|--
-|-------------------------------------------------------------------------|--
-|-------------------------------------------------------------------------|--
G2

-|-------------------------------------------------------------------------|--
-|------------------------------------13b15r13-10--------------------------|--
-|12p10h12--12p10h12--12p10h12-----10b-----------12b14r12p10---10-------10-|--
-|--------12--------12--------12-10-------------------------12----12-12----|--
-|-------------------------------------------------------------------------|--
-|-------------------------------------------------------------------------|--
G3

-|--------------------------------------------------------------------------|-
-|---0--1--------------0h1--0--------------0--1-----------------------------|-
-|---------2-----2-------------2-----2-----------2-----2-----2--0--------2--|-
-|------------0-----0-------------0-----0-----------0-----0--------3--0-----|-
-|--------------------------------------------------------------------------|-
-|--------------------------------------------------------------------------|-
G1

-|---7--8--5-----5-----5--3----5-----5-----7--8--5-----5-----5--3--------5--|-
-|------------3-----3--------3----3-----3-----------3-----3--------6--3-----|-
-|--------------------------------------------------------------------------|-
-|--------------------------------------------------------------------------|-
-|--------------------------------------------------------------------------|-
-|--------------------------------------------------------------------------|-
G2

-|--------------------------------------------------------------------------|-
-|-13-13-12----------------------10----13b15r13-10--------------------------|-
-|-14-14-12-10-------12b14r12-12-10---------------12b14r12p10---------------|-
-|------------12-xxxx------------10-12-----------------------12-10h12-12-12-|-
-|---------------xxxx-------------------------------------------------12-12-|-
-|--------------------------------------------------------------------12-12-|-
G3

-|-------------------------------------------------------------------------|--
-|---0--1--------------0h1--0--------------0--1----------------------------|--
-|---------2-----2-------------2-----2-----------2-----2-----2--0--------2-|--
-|------------0-----0-------------0-----0-----------0-----0--------3--0----|--
-|-------------------------------------------------------------------------|--
-|-------------------------------------------------------------------------|--
G1 Oh

-|---7--8--5-----5-----5--3----5-----5-----7--8--5-----5-----5--3--------5-|--
-|------------3-----3--------3----3-----3-----------3-----3--------6--3----|--
-|-------------------------------------------------------------------------|--
-|-------------------------------------------------------------------------|--
-|-------------------------------------------------------------------------|--
-|-------------------------------------------------------------------------|--
G2

-|-------------------------------------------------------------------------|--
-|-10-10-10--------10-10-10-----------------------13b15r13-10--------------|--
-|-10-10-10--------10-10-10---------10-12b14-10--------------12b14r12p10---|--
-|---------12--12----------12--12-12------------12----------------------12-|--
-|---------12--12----------------------------------------------------------|--
-|---------12--12----------------------------------------------------------|--
G3

-|------------------------------------------------------------------|---------
-|------------------------------------------------------------------|---------
-|--2--0--------2---2--0--------2---2--0--------2---2--0--------2---|---------
-|--------3--0------------3--0------------3--0------------3--0------|---------
-|------------------------------------------------------------------|---------
-|------------------------------------------------------------------|---------
G1 He draws a path heavy the thought quarter to four

-|--5--3--------5---5--3--------5---5--3--------5---5--3--------5---|---------
-|--------6--3------------6--3------------6--3------------6--3------|---------
-|------------------------------------------------------------------|---------
-|------------------------------------------------------------------|---------
-|------------------------------------------------------------------|---------
-|------------------------------------------------------------------|---------
G2

-|------------------------------------------------------------------|---------
-|----------------10--12-10-------x---10-10---------10-10-----------|---------
-|----------------10--12-10-------x---10-10---------10-10-----10----|---------
-|-12p10----10-------------12-12------------------------------10----|---------
-|------------------------------------------------------------------|---------
-|--------------------------------------------------------12--------|---------
G3

-|-----------------------------------------------------------------|----------
-|-----------------------------------------------------------------|----------
-|--2--0--------2---2--0--------2---2--0--------2---2--0--------2--|----------
-|--------3--0------------3--0--0---------3--0------------3--0-----|----------
-|-----------------------------------------------------------------|----------
-|-----------------------------------------------------------------|----------
G1 Fills his night with the thought of a girl

-|--5--3--------5---5--3--------5---5--3--------5---5--3--------5--|----------
-|--------6--3------------6--3------------6--3------------6--3-----|----------
-|-----------------------------------------------------------------|----------
-|-----------------------------------------------------------------|----------
-|-----------------------------------------------------------------|----------
-|-----------------------------------------------------------------|----------
G2

-|-----------------------------------------------------------------|----------
-|-12-10------------12---10----------------------------------------|----------
-|-12-10------------12---10-------12b14-12-10----------------------|----------
-|------12-12----------------12---------------12vvvvvvvvvvvvvvvvvv-|----------
-|-----------------------------------------------------------------|----------
-|-----------------------------------------------------------------|----------
G3

-|-------0-----------|-1----------------0----------------------0-----------|--
-|-3--1-----1--0--1--|-1----1----1------1----1----1------3--1-----1--0--1--|--
-|-------------------|-2----------------2-------------2--------------------|--
-|-------------------|-3----------------2----------------------------------|--
-|-------------------|-x----------------0----------------------------------|--
-|-------------------|-3---------------------------------------------------|--
G1 How he makes his getaway

-|-------0-----------|-5----------------5----------------------------------|--
-|-3--1-----1--0--1--|-6----------------5-------------3--------------------|--
-|-------------------|-5----------------5-------------2--------------------|--
-|-------------------|-7----------------7-------------0--------------------|--
-|-------------------|-8----------------7-------------0--------------------|--
-|-------------------|------------------7-------------0--------------------|--
G2

-|-------------------|-1----------/-----5----------------------------------|--
-|-------------------|-1----------/-----5----------------------------------|--
-|-------------------|-2----------/-----5----------------------------------|--
-|-12----------------|-3----------/-----7----------------------------------|--
-|-------------------|--------------------------------5--------------------|--
-|-12----------------|-----------------------------------------------------|--
G3

-|--1----------------0--------------------------------|-----------------------
-|--1----1----1------1----1----1------1-----1--0--1---|-----------------------
-|--2----------------2--------------------------------|-----------------------
-|--3----------------2--------------------------------|-----------------------
-|--x----------------0--------------------------------|-----------------------
-|--3-------------------------------------------------|-----------------------
G1 How he makes his getaway

-|--5----------------5-------------------0------------|-----------------------
-|--6----------------5----5--------3--1-----1--0--1---|-----------------------
-|--5----------------5--------------------------------|-----------------------
-|--7----------------7--------------------------------|-----------------------
-|--8----------------7--------------------------------|-----------------------
-|-------------------7--------------------------------|-----------------------
G2

-|--------------/----5--------------------------------|-----------------------
-|--1-----------/----5--------------------------------|-----------------------
-|--2-----------/----5--4b5r4b5r4b5r4b5r4b5r4b5r4b5r4-|-----------------------
-|--3-----------/----7--------------------------------|-----------------------
-|--3-------------------------------------------------|-----------------------
-|----------------------------------------------------|-----------------------
G3

-|--1----------------0-------------1-------------0------------------|---------
-|--1----1----1------1----1---1----1----1---1----1--------1---------|---------
-|--2----------------2-------------2-------------2---2-------2------|---------
-|--3----------------2-------------3-------------2------------------|---------
-|--x----------------0-------------x-------------0------------------|---------
-|--3------------------------------3--------------------------------|---------
G1 How he makes his getaway getaway

-|--5----------------5-------------5-------------5------------------|---------
-|--6----------------5-------------6-------------5------------------|---------
-|--5----------------5-------------5-------------5------------------|---------
-|--7----------------7-------------7-------------7------------------|---------
-|--8----------------7-------------8-------------7------------------|---------
-|-------------------7---------------------------7------------------|---------
G2

-|--1----------/-----5-------------1--------/----5------------------|---------
-|--1----------/-----5-------------1--------/----5------------------|---------
-|--2----------/-----5-------------2--------/----5------------------|---------
-|--3----------/-----7-------------3--------/----7-------------5b6r5|---------
-|------------------------------------------------------------------|---------
-|------------------------------------------------------------------|---------
G3

-|-----------0-------------------------------------------------|--------------
-|-----0--1-------1--1--1---0--0-------------------------------|--------------
-|---------------------------------2--2--2--2------------------|--------------
-|--0----------------------------------------------------------|--------------
-|-------------------------------------------------------------|--------------
-|-------------------------------------------------------------|--------------
G1

-|-----7--8--5---5---5-3---5----5---7-8-5---5---5--3--------5--|--------------
-|-------------3---3-----3----3---3-------3---3-------6--3-----|--------------
-|-------------------------------------------------------------|--------------
-|-------------------------------------------------------------|--------------
-|-------------------------------------------------------------|--------------
-|-------------------------------------------------------------|--------------
G2

-|-----------------------------------------------------------|----------------
-|---0--1---0--1-------------------------------0--1--0-------|----------------
-|----------------2-----2--0--2----------0--2-----------2----|----------------
-|-----------------------------------------------------------|----------------
-|-----------------------------------------------------------|----------------
-|-----------------------------------------------------------|----------------
G1

-|---7--8-5----5---5-3---5----5---7--8-5----5---5--3---------|----------------
-|-----------3---3-----3----3---3---------3---3-------6--3---|----------------
-|-----------------------------------------------------------|----------------
-|-----------------------------------------------------------|----------------
-|-----------------------------------------------------------|----------------
-|-----------------------------------------------------------|----------------
G2

-|-----------------------------------------------------------|----------------
-|-------------------------10-------------------12-10--------|----------------
-|-------------------------10--12b14-12-10------12-10--------|----------------
-|----------------------------------------12-10------12-12-x-|----------------
-|-------------------------------------------10------------x-|----------------
-|-----------------------------------------------------------|----------------
G3

¿Te Animas? Sube una canción a este sitio. //////////////////

ACORDES PARA GUITARRA

PIANO UKELELE


COMENTARIOS

Aún no hay comentarios,

¡escribe el primero!

Escribe una pregunta, duda o comentario sobre esta canción, te responderemos a la brevedad.

Las más tocadas de Pearl Jam

Toca una Canción al Azar de Pearl Jam