Pilate
Pearl Jam
Acordes

Subida por Aguirre
Álbum: Yield ( 1998)



+A
-A
standard tuning

Part 1

E |-----------0-0-0-----------------------------------------------
B |---7-7-7---5-5-5---3--3-3--------------------------------------
G |---7-7-7---6-6-6---2--2-2--------------------------------------
D |---0-0-0---7-7-7---0--0-0--------------------------------------
A |-----------0-0-0---0--0-0--------------------------------------
E |---------------------------------------------------------------


Repeat this time 4 times, but on the second and fourth time, do this:


E |---------------------------------------------------------------
B |---7-7-7---8-8-8---3--3-3--------------------------------------
G |---7-7-7---7-7-7---2--2-2--------------------------------------
D |---0-0-0---0-0-0---0--0-0--------------------------------------
A |-------------------0--0-0--------------------------------------
E |---------------------------------------------------------------


Part 2

E |---------------------------------------------------------------
B |---------------------------------------------------------------
G |---------------------------------------------------------------
D |--3-3-3--------------------------------------------------------
A |---------1-1-1--------------------------------------------------
E |---------------------------------------------------------------





Part 3

E |-----------0-0-0-----------------------------------------------
B |---7-7-7---5-5-5---3--3-3--------------------------------------
G |---7-7-7---6-6-6---2--2-2--------------------------------------
D |---0-0-0---7-7-7---0--0-0--------------------------------------
A |-----------0-0-0---0--0-0--------------------------------------
E |---------------------------------------------------------------


Repeat this time 4 times, but on the second and fourth time, do this:


E |---------------------------------------------------------------
B |---7-7-7---8-8-8---3--3-3--------------------------------------
G |---7-7-7---7-7-7---2--2-2--------------------------------------
D |---0-0-0---0-0-0---0--0-0--------------------------------------
A |-------------------0--0-0--------------------------------------
E |---------------------------------------------------------------


Part 4

E |---------------------------------------------------------------
B |---------------------------------------------------------------
G |---------------------------------------------------------------
D |-------333------333-------333-------333------------------------
A |-------111------111-------111-------111------------------------
E |--3333-----3333------3333------3333----------------------------


Repeat this part 2 times


Part 5 (Guitar #1)

E |-----------0-0-0-----------------------------------------------
B |---7-7-7---5-5-5---3--3-3--------------------------------------
G |---7-7-7---6-6-6---2--2-2--------------------------------------
D |---0-0-0---7-7-7---0--0-0--------------------------------------
A |-----------0-0-0---0--0-0--------------------------------------
E |---------------------------------------------------------------


Repeat this time 4 times, but on the second and fourth time, do this:


E |---------------------------------------------------------------
B |---7-7-7---8-8-8---3--3-3--------------------------------------
G |---7-7-7---7-7-7---2--2-2--------------------------------------
D |---0-0-0---0-0-0---0--0-0--------------------------------------
A |-------------------0--0-0--------------------------------------
E |---------------------------------------------------------------


Part 5 (Guitar #2)

Come in when Eddie sings "...angels in the dirt"

E |---------------------------------------------------------------
B |---------------------------------------------------------------
G |-----7-7-----7--7-7-7------------------------------------------
D |---------------------------------------------------------------
A |---5----5--5---5-----------------------------------------------
E |---------------------------------------------------------------


Part 6


E |---------------------------------------------------------------
B |---------------------------------------------------------------
G |---------------------------------------------------------------
D |-------333------333-------333-------333------------------------
A |-------111------111-------111-------111------------------------
E |--3333-----3333------3333------3333----------------------------


Repeat this part 2 times

Part 7

This is the part before Eddie sings "...stung by my own reflection..."

E |--5~~~~--------------------------------------------------------
B |--7~~~~--------------------------------------------------------
G |--7~~~~--------------------------------------------------------
D |---------------------------------------------------------------
A |----------222--4444--555-00-22---------------------------------
E |---------------------------------------------------------------


Part 8 (Guitar #1

E |---------------------------------------------------------------
B |---------------------------------------------------------------
G |---------------------------------------------------------------
D |---------------------------------------------------------------
A |--3333----5555--777-999--44--555-------------------------------
E |--1111----3333--555-777--22--333--2--3--2--3-2---3-2-3---------


>Part 8 (Guitar #2)

Start this part when you come up to the part "...like a friend now..."

E |--5-5-5---5---5--------5-------5-------------------------------
B |--7-7-7------7-----7------7------7-----------------------------
G |--7-7-7----------7---7--------7--------------------------------
D |---------------------------------------------------------------
A |--5-5-5--------5---------5--5------5---------------------------
E |---------------------------------------------------------------

Instead of following these note for note for Guitar #2, just pick
each note differently each time...


Part 9


E |---------------------------------------------------------------
B |---------------------------------------------------------------
G |---------------------------------------------------------------
D |-------333------333-------333-------333------------------------
A |-------111------111-------111-------111------------------------
E |--3333-----3333------3333------3333----------------------------


Repeat this part 2 times

ACORDES PARA GUITARRA

PIANO UKELELE


COMENTARIOS

Aún no hay comentarios,

¡escribe el primero!

Escribe una pregunta, duda o comentario sobre esta canción, te responderemos a la brevedad.

Las más tocadas de Pearl Jam

Toca una Canción al Azar de Pearl Jam