Push Me, Pull Me
Pearl Jam
Acordes

Subida por jose1985
Álbum: Yield ( 1998)



+A
-A
-|-------------------------------------------------------------------------|--
-|-------------------------------------------------------------------------|--
-|-------------------------------------------------------------------------|--
-|-14-14-14-14-14-14-14-14-14-14-14-14-14-14-14-14-14-14-14-14-14-14-14-14-|--
-|-------------------------------------------------------------------------|--
-|-------------------------------------------------------------------------|--
When vox enter, a guitar trem picks this until 2nd verse

-|-----------------|-12vvvvvvvv--15b17-|-------------------------------------
-|-----------------|--------------------|-------------------------------------
-|-----------------|--------------------|-------------------------------------
-|-12-12-12-12-12--|--------------------|-------------------------------------
-|-----------------|--------------------|-------------------------------------
-|-----------------|--------------------|-------------------------------------
Various fills

-|-----------------------------------------------------------------|----------
-|-----------------3-3-3-3-3-3-3-3---------------------------------|----------
-|-----------------2-2-2-2-2-2-2-2-2-2-2-2-2-2-2-2-2-2-2-2-2-2-2-2-|----------
-|-4-4-4-4-4-4-4-4-0-0-0-0-0-0-0-0-2-2-2-2-2-2-2-2-2-2-2-2-2-2-2-2-|----------
-|-4-4-4-4-4-4-4-4-----------------0-0-0-0-0-0-0-0-0-0-0-0-0-0-0-0-|----------
-|-2-2-2-2-2-2-2-2-------------------------------------------------|----------
Chorus 2x
-|------------|--------------------|--------------|----------------|----------
-|-14vvvv----|--/-/-/-17----------|--------------|----------------|----------
-|------------|--------------------|--------------|----------------|----------
-|------------|-----------x--x-/--|---------0h2--|---------0h2-0--|----------
-|------------|-----------x--x-/--|---0h2p0------|---0h2p0--------|----------
-|------------|--------------------|-0------------|-0--------------|----------
2nd verse, more random fills 3x
-|----------------------------------------------------|-----------------------
-|----------------------------------------------------|-----------------------
-|----------------------------------------------------|-----------------------
-|---------0h2---------0h2---------0h2---------0h2-0--|-----------------------
-|---0h2p0-------0h2p0-------0h2p0-------0h2p0--------|-----------------------
-|-0-----------0-----------0-----------0--------------|-----------------------


-|-------------------------------------------------------------------|--------
-|-----------------3-3-3-3-3-3-3-3-----------------------------------|--------
-|-----------------2-2-2-2-2-2-2-2-2-2-2-2-2-2-2-2-2-2-2-2-2-2-2-2-2-|--------
-|-4-4-4-4-4-4-4-4-0-0-0-0-0-0-0-0-2-2-2-2-2-2-2-2-2-2-2-2-2-2-2-2-2-|--------
-|-4-4-4-4-4-4-4-4-----------------0-0-0-0-0-0-0-0-0-0-0-0-0-0-0-0-0-|--------
-|-2-2-2-2-2-2-2-2---------------------------------------------------|--------
Chorus G1 3x
-|-------------------------------------------------------------------|--------
-|-3-3-3-3-3-3-3-3---------------------------------3-3-3-3-3-3-3-3-3-|--------
-|-2-2-2-2-2-2-2-2-----------------2-2-2-2-2-2-2-2-2-2-2-2-2-2-2-2-2-|--------
-|-0-0-0-0-0-0-0-0-4-4-4-4-4-4-4-4-2-2-2-2-2-2-2-2-0-0-0-0-0-0-0-0-0-|--------
-|-----------------4-4-4-4-4-4-4-4-0-0-0-0-0-0-0-0-------------------|--------
-|-----------------2-2-2-2-2-2-2-2-----------------------------------|--------


-|--------------------------------------------------------------------------|-
-|--------------------------------------------------------------------------|-
-|-----------------------------------b20r19b21r19---------------------------|-
-|------------------------------------------------17b18r17------------------|-
-|---------------------------------------------------------19b20r19b20r19--|-
-|--------------------------------------------------------------------------|-
G2 on 4th time

-|---------|----------------|-------------------------------------------------
-|---------|---/19----------|-------------------------------------------------
-|---/21---|--------/21----|-------------------------------------------------
-|---------|----------------|-------------------------------------------------
-|---------|----------------|-------------------------------------------------
-|---------|----------------|-------------------------------------------------
Last Verse

-|-------------------------------------------------------------------|--------
-|-----------------3-3-3-3-3-3-3-3-----------------------------------|--------
-|-----------------2-2-2-2-2-2-2-2-2-2-2-2-2-2-2-2-2-2-2-2-2-2-2-2-2-|--------
-|-4-4-4-4-4-4-4-4-0-0-0-0-0-0-0-0-2-2-2-2-2-2-2-2-2-2-2-2-2-2-2-2-2-|--------
-|-4-4-4-4-4-4-4-4-----------------0-0-0-0-0-0-0-0-0-0-0-0-0-0-0-0-0-|--------
-|-2-2-2-2-2-2-2-2---------------------------------------------------|--------
Outro 3x
-|-------------------------------------------------------------------|--------
-|-3-3-3-3-3-3-3-3-----------------------------------3-3-3-3-3-3-3-3-|--------
-|-2-2-2-2-2-2-2-2-------------------2-2-2-2-2-2-2-2-2-2-2-2-2-2-2-2-|--------
-|-0-0-0-0-0-0-0-0-4-4-4-4-4-4-4-4-4-2-2-2-2-2-2-2-2-0-0-0-0-0-0-0-0-|--------
-|-----------------4-4-4-4-4-4-4-4-4-0-0-0-0-0-0-0-0-----------------|--------
-|-----------------2-2-2-2-2-2-2-2-2---------------------------------|--------


-|---------------------------------|------------------------------------------
-|---------------------------------|------------------------------------------
-|-2--2-2-2-2-2-2-2-2-2-2-2-2-2-2--|------------------------------------------
-|-2--2-2-2-2-2-2-2-2-2-2-2-2-2-2--|------------------------------------------
-|-0--0-0-0-0-0-0-0-0-0-0-0-0-0-0--|------------------------------------------
-|---------------------------------|------------------------------------------


-|-------------------------------------------------------------------|--------
-|-------------------3-3-3-3-3-3-3-3---------------------------------|--------
-|-------------------2-2-2-2-2-2-2-2-2-2-2-2-2-2-2-2-2-2-2-2-2-2-2-2-|--------
-|-4-4-4-4-4-4-4-4-4-0-0-0-0-0-0-0-0-2-2-2-2-2-2-2-2-2-2-2-2-2-2-2-2-|--------
-|-4-4-4-4-4-4-4-4-4-----------------0-0-0-0-0-0-0-0-0-0-0-0-0-0-0-0-|--------
-|-2-2-2-2-2-2-2-2-2-------------------------------------------------|--------
Repeat, fade....

ACORDES PARA GUITARRA

PIANO UKELELE


COMENTARIOS

Aún no hay comentarios,

¡escribe el primero!

Escribe una pregunta, duda o comentario sobre esta canción, te responderemos a la brevedad.

Las más tocadas de Pearl Jam

Toca una Canción al Azar de Pearl Jam