Rearviewmirror
Pearl Jam
Acordes

Subida por Alberto
Álbum: Vs. ( 1993)


Más Versiones

+A
-A
intro:

|-------------------------|
|-------------------------|
|-------------------------|8x
|-----0-------------------|essa é a introdução
|---0---0-5-7-------------|
|-5-----------0-0---------|

Riff 1:
|-------------------------|
|-------------------------|
|-------------------------|8x
|-----0-------------------|
|---0---0-5-7-------------|
|-5-----------0-0---------|

Riff 2:
|-------------------------|
|-------------------------|
|-------------------------|4x
|------0------------------|
|----0---0-7-9------------|
|--7----------------------|

Riff 3:
|-------------------------|
|-------------------------|
|-------------------------|4x
|-----0-------------------|
|---0---0-5-7-------------|
|-5-----------0-0---------|

Riff 4:
|-------------------------|
|-------------------------|
|-------------------------|4x
|------0------------------|
|----0---0-7-9------------|
|--7----------------------|

Riff 5:
-----------|
-----------|
-----------|
--5-5-5----|
--5-5-5----|
--3-3-3----|


Riff 6:
-----------|
-----------|
-----------|
--7-7-7----|
--7-7-7----|
--5-5-5----|

Riff 1:
I took a drive today
Time to emancipate

Riff 2:
I guess it was the beatings

Riff 3:
Made me wise

Riff 4:
But I'm not about to give thanks,

Riff 3:
Or apologize

Riff do refrão:
|------------------------------------------------------------------------
|------------------------------------------------------------------------
|-9-9-9-9-9-9-9-9-9-9-9-9-9-9-9/11-11--5-5-5-5-5-5-5-5-5-5-5-5-5-5-5/7-7-
|-9-9-9-9-9-9-9-9-9-9-9-9-9-9-9/11-11--5-5-5-5-5-5-5-5-5-5-5-5-5-5-5/7-7-
|-7-7-7-7-7-7-7-7-7-7-7-7-7-7-7/9--9---3-3-3-3-3-3-3-3-3-3-3-3-3-3-3/5-5-
|------------------------------------------------------------------------

|----------------------------------------------------------
|----------------------------------------------------------
|-4-4-4-4-4-4-4-4-4----------------------------------------
|-4-4-4-4-4-4-4-4-4-------5-5-5-5-5-5-5-5-5-5-5-5-5-5-5----
|-2-2-2-2-2-2-2-2-2--4-4--5-5-5-5-5-5-5-5-5-5-5-5-5-5-5----
|--------------------2-2--3-3-3-3-3-3-3-3-3-3-3-3-3-3-3----


Refrão
I couldn't breathe, holdin' me down
Hand on my face, pushed to the ground
Enmity gaged, united by fear
Forced to endure what I could not forgive


Riff 1 + Riff 5:
I seem to look away
Wounds in the mirror waved

Riff 2 + Riff 6:
It wasn't my surface
most defiled

Riff refrão:
Head at your feet, fool to your crown
Fist on my plate, swallowed it down

Começa o solo:
Enmity gaged, united by fear
Tried to endure what I could not forgive


B A
-----------------------------------------------
-----------------------------------------------
-----------------------------------------------
--9-9-9-9-9-9-9-9-9-9-9--7-7-7-7-7-7-7-7-7-7-7-
--9-9-9-9-9-9-9-9-9-9-9--7-7-7-7-7-7-7-7-7-7-7-
--7-7-7-7-7-7-7-7-7-7-7--5-5-5-5-5-5-5-5-5-5-5-

B
Saw things (2x)
A
Saw things (2x)
B
Clearer (2x)
A
Once you, were in my...Rearview mirror

Riff refrão + solo:
I gather speed from you fucking with me
Once and for all I'm far away
I hardly believe, finally the shades...

B A B A
Are raised...hey

B
Saw things so much clearer 2x
A
Once you, once you... 2x
Rearview mirror
B
Saw things so much clearer
A
Once you...oh yeah


chorus:

|-2-2-2-2-2-2-2-2-2-2-2-2-2-2-2------3-3-3-3-3-3-3-3-3-3-3-3-3-3-3----
|-2-2-2-2-2-2-2-2-2-2-2-2-2-2-2------3-3-3-3-3-3-3-3-3-3-3-3-3-3-3----
|-3-3-3-3-3-3-3-3-3-3-3-3-3-3-3------4-4-4-4-4-4-4-4-4-4-4-4-4-4-4----
|-4-4-4-4-4-4-4-4-4-4-4-4-4-4-4------5-5-5-5-5-5-5-5-5-5-5-5-5-5-5----
|-4-4-4-4-4-4-4-4-4-4-4-4-4-4-4------5-5-5-5-5-5-5-5-5-5-5-5-5-5-5----
|-2-2-2-2-2-2-2-2-2-2-2-2-2-2-2-0-1--3-3-3-3-3-3-3-3-3-3-3-3-3-3-3----



Solo:
|----------12-14-------------12-14--------------12-14---------------------
|-12-12-12----------12-12-12-----------12-12-12-------12-12-14-15-14-12---
|-------------------------------------------------------------------------
|-------------------------------------------------------------------------
|-------------------------------------------------------------------------
|-------------------------------------------------------------------------

|-----------------------------
|-14-15-14-12-14-12-14-12~----
|-----------------------------
|-----------------------------
|-----------------------------
|-----------------------------

ACORDES PARA GUITARRA

PIANO UKELELE
B
A


COMENTARIOS

Aún no hay comentarios,

¡escribe el primero!

Escribe una pregunta, duda o comentario sobre esta canción, te responderemos a la brevedad.

Las más tocadas de Pearl Jam

Toca una Canción al Azar de Pearl Jam
B
A