Rival
Pearl Jam
Acordes

Subida por AditaPi
Álbum: Binaural ( 2000)



+A
-A
Transcribed by: Evan Cowan




-|-------------------|-------------------------------|------------------------
-|-------------------|----------6-------------6------|------------------------
-|-------------------|-x-----6--7---6------6--7---6--|------------------------
-|-------------------|-x-8---8--8---8--8---8--8---8--|------------------------
-|-------------------|-x-8-------------8-------------|------------------------
-|-------------------|---6-------------6-------------|------------------------
Grrr...... G1

-|---------------------------------------------------------|------------------
-|--------6-------------6-------------6-------------6------|------------------
-|-----6--7---6------6--7---6------6--7---6------6--7---6--|------------------
-|-8---8--8---8--8---8--8---8--8---8--8---8--8---8--8---8--|------------------
-|-8-------------8-------------8-------------8-------------|------------------
-|-6-------------6-------------6-------------6-------------|------------------
G1

Verse
-|---------------------------------------------------------|------------------
-|---------------------------------------------------------|------------------
-|---------------x-x-x-6-----------------------------------|------------------
-|--8------------x-x-x-6----------6-------------6----6-6-7-|------------------
-|--8------------x-x-x-4----------6-------------6----6-6-7-|------------------
-|--6------------------4----------4-------------4----4-4-5-|------------------
G1 All my rivals will see what I have in store my

-|---------------------------------------------------------|------------------
-|---------------------------------------------------------|------------------
-|---------------x-x-x-6-----------------------------------|------------------
-|--8------------x-x-x-6----------6------------------x-6-7-|------------------
-|--8------------x-x-x-4----------6------------------x-6-7-|------------------
-|--6------------------4----------4------------------x-4-5-|------------------
G2

-|-------------------------------|--------------------------------------------
-|---------6-------------6-------|--------------------------------------------
-|------6--7---6------6--7---6---|--------------------------------------------
-|--8---8--8---8--8---8--8---8---|--------------------------------------------
-|--8-------------8--------------|--------------------------------------------
-|--6-------------6--------------|--------------------------------------------
G1 Gun

-|-------------------------------|--------------------------------------------
-|-------------------------------|--------------------------------------------
-|----------------------------x--|--------------------------------------------
-|--8------------------------x--|--------------------------------------------
-|--8------------------------x--|--------------------------------------------
-|--6---------------------------|--------------------------------------------
G2

-|--------------------------------------------------------------|-------------
-|--------------------------------------------------------------|-------------
-|----------------------6---------------------------------------|-------------
-|--8-------------------6--------------6--------6---6-6---x-6-7-|-------------
-|--8-------------------4--------------6--------6---6-6---x-6-7-|-------------
-|--6-------------------4--------------4--------4---4-4---x-4-5-|-------------
G1 I've been harboring fleets in this reservoir red

-|--------------------------------------------------------------|-------------
-|--------------------------------------------------------------|-------------
-|----------------------6---------------------------------------|-------------
-|--8-------------------6--------------6------------------x-6-7-|-------------
-|--8-------------------4--------------6------------------x-6-7-|-------------
-|--6-------------------4--------------4------------------x-4-5-|-------------
G2

-|-------------------------------|--------------------------------------------
-|---------6-------------6-------|--------------------------------------------
-|------6--7---6------6--7---6---|--------------------------------------------
-|--8---8--8---8--8---8--8---8---|--------------------------------------------
-|--8-------------8--------------|--------------------------------------------
-|--6-------------6--------------|--------------------------------------------
G1 Sun

-|-------------------------------|--------------------------------------------
-|-------------------------------|--------------------------------------------
-|---------------------------x---|--------------------------------------------
-|--8-----------------------x---|--------------------------------------------
-|--8-----------------------x---|--------------------------------------------
-|--6---------------------------|--------------------------------------------
G2

-|-----------------------------------------------------|----------------------
-|-----------------------------------------------------|----------------------
-|-----------6-------------------8---------------------|----------------------
-|--8--------6---------6---------8---------------------|----------------------
-|--8--------4---------6---------6---------------------|----------------------
-|--6--------4---------4---------6---------------------|----------------------
G1 And this nation's about to explode

-|-----------------------------------------------------|----------------------
-|-----------------------------------------------------|----------------------
-|-----------6-------------------8---------------6h8---|----------------------
-|--8--------6---------6---------8----------6/8--------|----------------------
-|--8--------4---------6---------6---------------------|----------------------
-|--6--------4---------4---------6---------------------|----------------------
G2

-|-----------------------------------------------------------|----------------
-|-----------6------------------6------------------6---------|----------------
-|-------6---7-----6--------6---7-----6--------6---7-----6---|----------------
-|--8----8---8-----8---8----8---8-----8---8----8---8-----8---|----------------
-|--8------------------8------------------8------------------|----------------
-|--6------------------6------------------6------------------|----------------
G1

-|-----------------------------------------------------------|----------------
-|-----------------------------------------------------------|----------------
-|--8b10vvvvvvvvvv---8b10r8-6-8-6h8---6h8--------------------|----------------
-|----------------------------------------8------------------|----------------
-|-----------------------------------------------------------|----------------
-|-----------------------------------------------------------|----------------
G2

Verse
-|---------------------------------------------------------|------------------
-|---------------------------------------------------------|------------------
-|-----------------------6---------------------------------|------------------
-|--8--------------------6------------6---------6-----6-7--|------------------
-|--8--------------------4------------6---------6-----6-7--|------------------
-|--6--------------------4------------4---------4-----4-5--|------------------
G1 You're disciples are riddled with metaphors well

-|---------------------------------------------------------|------------------
-|---------------------------------------------------------|------------------
-|-----------------------6---------------------------------|------------------
-|--8--------------------6------------6---------------6-7--|------------------
-|--8--------------------4------------6---------------6-7--|------------------
-|--6--------------------4------------4---------------4-5--|------------------
G1

-|-------------------------------|--------------------------------------------
-|---------6-------------6-------|--------------------------------------------
-|------6--7---6------6--7---6---|--------------------------------------------
-|--8---8--8---8--8---8--8---8---|--------------------------------------------
-|--8-------------8--------------|--------------------------------------------
-|--6-------------6--------------|--------------------------------------------
G1 Hung

-|-------------------------------|--------------------------------------------
-|-------------------------------|--------------------------------------------
-|---------------------------x---|--------------------------------------------
-|--8-----------------------x---|--------------------------------------------
-|--8-----------------------x---|--------------------------------------------
-|--6---------------------------|--------------------------------------------
G2

-|-------------------------------------------------------------|--------------
-|-------------------------------------------------------------|--------------
-|---------------------6---------------------------------------|--------------
-|--8------------------6---------------6-----------6-----6---7-|--------------
-|--8------------------4---------------6-----------6-----6---7-|--------------
-|--6------------------4---------------4-----------4-----4---5-|--------------
G1 Better pony up and bring both your barrelsfull not

-|-------------------------------------------------------------|--------------
-|-------------------------------------------------------------|--------------
-|---------------------6---------------------------------------|--------------
-|--8------------------6---------------6---------------------7-|--------------
-|--8------------------4---------------6---------------------7-|--------------
-|--6------------------4---------------4---------------------5-|--------------
G2

-|-------------------------------|--------------------------------------------
-|---------6-------------6-------|--------------------------------------------
-|------6--7---6------6--7---6---|--------------------------------------------
-|--8---8--8---8--8---8--8---8---|--------------------------------------------
-|--8-------------8--------------|--------------------------------------------
-|--6-------------6--------------|--------------------------------------------
G1 One

-|-------------------------------|--------------------------------------------
-|-------------------------------|--------------------------------------------
-|-------------------------------|--------------------------------------------
-|--8---------------------------|--------------------------------------------
-|--8---------------------------|--------------------------------------------
-|--6---------------------------|--------------------------------------------
G2

-|----------------------------------------------|-----------------------------
-|----------------------------------------------|-----------------------------
-|----------6----------------------8------------|-----------------------------
-|--8-------6------------6---------8------------|-----------------------------
-|--8-------4------------6---------6------------|-----------------------------
-|--6-------4------------4---------6------------|-----------------------------
G1 As we release this unspeakable toll

-|----------------------------------------------|-----------------------------
-|----------------------------------------------|-----------------------------
-|----------6----------------------8------------|-----------------------------
-|--8-------6------------6---------8------------|-----------------------------
-|--8-------4------------6---------6------------|-----------------------------
-|--6-------4------------4---------6------------|-----------------------------
G2

-|-------------------------------|--------------------------------------------
-|---------6-------------6-------|--------------------------------------------
-|------6--7---6------6--7---6---|--------------------------------------------
-|--8---8--8---8--8---8--8---8---|--------------------------------------------
-|--8-------------8--------------|--------------------------------------------
-|--6-------------6--------------|--------------------------------------------
G1

-|-------------------------------|--------------------------------------------
-|-------------------------------|--------------------------------------------
-|-------------------------------|--------------------------------------------
-|--8---------------------------|--------------------------------------------
-|--8---------------------------|--------------------------------------------
-|--6---------------------------|--------------------------------------------
G2

Bridge
-|-----------------------------------------------------|----------------------
-|-----------------------------------------------------|----------------------
-|----------------------7-7-7-------------------4-5----|----------------------
-|--8----8-----8--------8-8-8-6------6------6---6-6----|----------------------
-|--8----8-----8--------8-----6------6------6----------|----------------------
-|--6----6-----6--------6-----4------4------4----------|----------------------
G1

-|-----------------------------------------------------|----------------------
-|-----5-6-5-6-6/8-10-8-6-5----------------------------|----------------------
-|---7----------------------7-5--5h7-8-8/10-8----------|----------------------
-|-----------------------------------------------------|----------------------
-|-----------------------------------------------------|----------------------
-|-----------------------------------------------------|----------------------
G2

-|------------------------------------------------------|---------------------
-|------------------------------------------------------|---------------------
-|------------------------7-----------------------------|---------------------
-|--8----8-----8--------8-8-7-6------6------6-----6-----|---------------------
-|--8----8-----8--------8-----6------6------6-----6-----|---------------------
-|--6----6-----6--------6-----4------4------4-----4-----|---------------------
G1

-|------------------------------------------------------|---------------------
-|-----5-6-5-6-6/8-10-8-6-5-----------------------------|---------------------
-|---7----------------------7-5--5h7-8-8/10-8-----------|---------------------
-|------------------------------------------------------|---------------------
-|------------------------------------------------------|---------------------
-|------------------------------------------------------|---------------------
G2

-|--------------------------------------|------------------------------|------
-|--------------------------------------|--------6-------------6-------|------
-|--------------------5-5-5-------------|-----6--7---6------6--7---6---|------
-|--8-8-8----4-4-4----5-5-5----5-5-5----|-8---8--8---8--8---8--8---8---|------
-|--8-8-8----4-4-4----3-3-3----5-5-5----|-8-------------8--------------|------
-|--6-6-6----2-2-2-------------3-3-3----|-6-------------6--------------|------
G1

-|--------------------------------------|-/10--------------------------|------
-|----------------------------8-6-8--6--|------------------------------|------
-|-----------6h8p6-8b10vvvvv------------|------------6-8-8b10vvvvvv----|------
-|-------6/8----------------------------|------------------------------|------
-|--------------------------------------|------------------------------|------
-|--------------------------------------|------------------------------|------
G2

-|--------------------------------------|------------------------------|------
-|--------------------------------------|--------6-------------6-------|------
-|--------------------5-5-5-------------|-----6--7---6------6--7---6---|------
-|--8-8-8----4-4-4----5-5-5----5-5-5----|-8---8--8---8--8---8--8---8---|------
-|--8-8-8----4-4-4----3-3-3----5-5-5----|-8-------------8--------------|------
-|--6-6-6----2-2-2-------------3-3-3----|-6-------------6--------------|------
G1

-|--------------------------------------|------------------------------|------
-|-----------------------------------6--|------------------------------|------
-|-----------6-8-8b10-8-6-8-6--------6--|------------------------------|------
-|-------6/8-------------------8--------|-8--------------/------------|------
-|--------------------------------------|------------------------------|------
-|--------------------------------------|------------------------------|------
G2

Chorus
-|----------------------------------------------------------|-----------------
-|----------------------------------------------------------|-----------------
-|----------------------6-----------------------------------|-----------------
-|--8-------------------6-------------6--------6----6--x-7--|-----------------
-|--8-------------------4-------------6--------6----6--x-7--|-----------------
-|--6-------------------4-------------4--------4----4--x-5--|-----------------
G1 How's our mother to damn these contributors with

-|----------------------------------------------------------|-----------------
-|----------------------------------------------------------|-----------------
-|----------------------6-----------------------------------|-----------------
-|--8---------8---------6-------------6-------------6--x-7--|-----------------
-|--8---------8---------4-------------6-------------6--x-7--|-----------------
-|--6---------6---------4-------------4-------------4--x-5--|-----------------
G2

-|-------------------------------|--------------------------------------------
-|---------6-------------6-------|--------------------------------------------
-|------6--7---6------6--7---6---|--------------------------------------------
-|--8---8--8---8--8---8--8---8---|--------------------------------------------
-|--8-------------8--------------|--------------------------------------------
-|--6-------------6--------------|--------------------------------------------
G1 Mud

-|-------------------------------|--------------------------------------------
-|---------6--------------------|--------------------------------------------
-|------6--7---x-----6--7-------|--------------------------------------------
-|--8---8--8---x-8---8--8-------|--------------------------------------------
-|--8-----------x-8--------------|--------------------------------------------
-|--6-------------6--------------|--------------------------------------------
G2

-|------------------------------------------------------------|---------------
-|------------------------------------------------------------|---------------
-|----------------------------6-------------------------------|---------------
-|--8-------------------------6---------6--------6-----6--x-7-|---------------
-|--8-------------------------4---------6--------6-----6--x-7-|---------------
-|--6-------------------------4---------4--------4-----4--x-5-|---------------
G1 How will the man who made chemicals difficult shed

-|------------------------------------------------------------|---------------
-|----------------------------6---------9---------------------|---------------
-|-------------------------------------------10p86-8-b10vvvvv|---------------
-|--8---------------------------------------------------------|---------------
-|--8---------------------------------------------------------|---------------
-|--6---------------------------------------------------------|---------------
G2

-|-------------------------------|--------------------------------------------
-|---------6-------------6-------|--------------------------------------------
-|------6--7---6------6--7---6---|--------------------------------------------
-|--8---8--8---8--8---8--8---8---|--------------------------------------------
-|--8-------------8--------------|--------------------------------------------
-|--6-------------6--------------|--------------------------------------------
G1 Blood

-|-------------------------------|--------------------------------------------
-|------------------6-9---6------|--------------------------------------------
-|vvvvv----------------8-6------|--------------------------------------------
-|-------------------------------|--------------------------------------------
-|-------------------------------|--------------------------------------------
-|-------------------------------|--------------------------------------------
G2

-|---------------------------------------------|------------------------------
-|---------------------------------------------|------------------------------
-|------------6---------------------8----------|------------------------------
-|--8---------6---------6-----------8----------|------------------------------
-|--8---------4---------6-----------6----------|------------------------------
-|--6---------4---------4-----------6----------|------------------------------
G1 How's our father supposed to be told

-|---------------------------------------------|------------------------------
-|---------------------------------------------|------------------------------
-|------------6---------------------8----------|------------------------------
-|--8---------6---------6-----------8----------|------------------------------
-|--8---------4---------6-----------6----------|------------------------------
-|--6---------4---------4-----------6----------|------------------------------
G2

-|-------------------------------|----------------------------------|---------
-|---------6-------------6-------|----------------------------------|---------
-|------6--7---6------6--7---6---|------------------5-5-5-----------|---------
-|--8---8--8---8--8---8--8---8---|--8-8-8---4-4-4---5-5-5---5-5-5---|---------
-|--8-------------8--------------|--8-8-8---4-4-4---3-3-3---5-5-5---|---------
-|--6-------------6--------------|--6-6-6---2-2-2-----------3-3-3---|---------
G1

-|-------------------------------|----------------------------------|---------
-|---------6-------------6-------|-6-8b9r8-6------------------------|---------
-|------6--7---6------6--7---6---|---------------6-8b9r8-6-8--------|---------
-|--8---8--8---8--8---8--8---8---|-------------8--------------------|---------
-|--8-------------8--------------|----------------------------------|---------
-|--6-------------6--------------|----------------------------------|---------
G2

-|-------------------------------|----------------------------------|---------
-|---------6-------------6-------|----------------------------------|---------
-|------6--7---6------6--7---6---|----------------------------------|---------
-|--8---8--8---8--8---8--8---8---|----------------------------------|---------
-|--8-------------8--------------|----------------------------------|---------
-|--6-------------6--------------|----------------------------------|---------
G1+G2

-|-----------------------------------------------||---------------------------
-|-----------------------------------------------||---------------------------
-|-----------------------------------------------||---------------------------
-|-8-----8-----8--------8-----6----6--------6----||---------------------------
-|-8-----8-----8--------8-----6----6--------6----||---------------------------
-|-6-----6-----6--------6-----4----4--------4----||---------------------------
G1 fade out...

-|-----------------------------------------------||---------------------------
-|-----5-6-5-6-6/8-10-8-6-5----------------------||---------------------------
-|---7----------------------7-5--5h7-8-8/10-8----||---------------------------
-|-----------------------------------------------||---------------------------
-|-----------------------------------------------||---------------------------
-|-----------------------------------------------||---------------------------
G2 fade out...

ACORDES PARA GUITARRA

PIANO UKELELE


COMENTARIOS

Aún no hay comentarios,

¡escribe el primero!

Escribe una pregunta, duda o comentario sobre esta canción, te responderemos a la brevedad.

Las más tocadas de Pearl Jam

Toca una Canción al Azar de Pearl Jam