Satan's Bed (Acordes)

Pearl Jam

Full Álbum: Vitalogy (1994)
Subida por TGOITO

Compartir


Imprimir FAQ
+A
-A

Texto

Desplazamiento

Transportador

Color de Fondo

Archivos

-A
+A
intro/verse:
|---------------------------------------------------------------------
|---------------------------------------------------------------------
|---------------------------------------------------------------------
|---------------------------------------------------------------------
|-------4-----4-----4-------------------------------------------------
|-0-0-5---5-5---5-5---5-5-4-3~----------------------------------------

during verse, this riff is played:
|-----15-----15-------------------------------------------------------
|-15b----15b----------------------------------------------------------
|---------------------------------------------------------------------
|---------------------------------------------------------------------
|---------------------------------------------------------------------
|---------------------------------------------------------------------

chorus:
guitar one:    guitar two:
C B B A    C G D A
C B D A    C G D A
C B B A    C G D A
C B D A    C G D A
C B B A            C G D A
C B D A    C G D A

verse
chorus with following fill:
|------15-----15-----15--------------15-------------------------------
|--15b----15b----15b----15p14----15b-----etc..------------------------
|-----------------------------14--------------------------------------
|---------------------------------------------------------------------
|---------------------------------------------------------------------
|---------------------------------------------------------------------

solo (when eddie's saying "Torture follows reward"):
|---------------------------------------------------------------------
|---------------------------------------------------------------------
|-12-12-12-12-12-14-14~-14~-14~-14-14p12s10---------------------------
|-------------------------------------------12-12--12-12-12-12--------
|--------------------------------------------------14-14-14-12--------
|---------------------------------------------------------------------

|---------------------------------------------------------------------
|---------------------------------------------------------------------
|--------------------14--12--14--12-16-16-16-14--17-17-17-14----------
|-12-12-12-12--------14--12--14--12-14-14-14-14--14-14-14-14----------
|-14-14-14-12--14b-12-------------------------------------------------
|---------------------------------------------------------------------

verse
chorus

fade out

Video Clip de Satan's Bed


ACORDES PARA GUITARRA

PIANO UKELELE


TOP 20: Las más tocadas de Pearl Jam


Toca una Canción al Azar de Pearl Jam

Acordes

Cerrar

15.40

x

189