Save You
Pearl Jam
Acordes

Subida por Adriana
Álbum: Riot Act ( 2002)



+A
-A
GUITARRA 1 ( MIKE McCREADY )  G1
GUITARRA 2 ( STONE GOSSARD ) G2
BAIXO ( JEFF AMENT) B

Riffs:

G1a G1b
---------------------------------------|--------------------------------------
---------------------------------------|--------------------------------------
-------------------5--5--5-5-5---------|-------------------7--7--7-7-7--------
-------------------5--5--5-5-5---------|-------------------7--7--7-7-7--------
---2---------------3--3--3-3-5---------|---2---------------5--5--5-5-5--------
---0--0-/6-6-5-0-0---------------------|---0--0-/6-6-5-0-0--------------------

G2a G2b
----------------------8---8---8--8--8--|--------------------------------------
---------11-11-10-----8---8---8--8--8--|-------11-11-10----10--10--10-10-10---
---9-----10-10-9------9---9---9--9--9--|-------10-10-9-----9---9---9--9--9----
---9-----8--8--7------10--10--10-10-10-|-x--x--8--8--7-----7---7---7--7--7----
---7-----8--8--7------10--10--10-10-10-|-x--x--8--8--7-----7---7---7--7--7----
------------------0-0-8---8---8--8--8--|----------------0-0-------------------

Ba Bb
---------------------------------------|--------------------------------------
--------5-7-7b-5-----------------------|-----------5-7-7b-5-5--5--5-5-5-------
---7--7-----------3--3--3-3-3----------|------7--7----------------------------
---------------------------------------|--------------------------------------

Riff c
---------------------------------------|
---------------------------------------|
-7-7----6-6----5-5----4-4-4------------|
-7-7----6-6----5-5----4-4-4------------|
-5-5--0-4-4--0-3-3--0-2-2-2------------|
---------------------------------------|

introdução:

G2a
G2a + G1a
Entra a bateria
G2a + G1a + Ba ( 2x )

( G2a + G1a + Ba )
I'm gonna save you fucker.
( G2a + G1a + Ba )
Not gonna lose you.
( G2a + G1a + Ba )
I'm feeling cocky and strong.
( G2b + G1b + Bb )
Can't let you go.

(G2a + G1a + Ba )
Too important to me.
( G2a + G1a + Ba )
Too important to us.
( G2a + G1a + Ba )
We'd be lost without you.
( G2a + G1a + Ba sem o C no final ) 2x
And baby, let yourself fall.
I'm right below you now.

Refrão:
No refrão, G2 ( Stone ) toca os acordes e G1 ( Mike ) os riffs
( quando tem, senão toca também os acordes) .
O Jeff toca o seguinte com algumas pequenas variações em outros refrões

---------------------------------------------------
---------------------------------------------------
-5-5-5-5-5/7-7-7-7-7-10-10-10-10-------------------
---------------------------------8-8-8-8-8-8-------

---------------------------------------------------
---------------------------9-----------------------
-5-5-5-5-5/7-7-7-7-7/10-10---10-8-10-8-------------
---------------------------------------8-8-8-8-8---

|----esta parte junto com o Riff c
---------------------------------------------------
---------------------------------------------------
-5-5-5-5-5/7-7-7-7-7-7-7---5-5-5-5-5-5-5-5-5-5-5---
---------------------------------------------------


D E G C
And fuck me if I say something you don't wanna hear. Fuck me.
D E G C D
Fuck me if you only hear what you wanna hear.
E ( Riff c )
Fuck me if I care
but I'm not leaving here.

( G2a + G1a + Ba ) ( G2a + G1a + Ba )
You helped me when I was down.
( G2a + G1a + Ba )
I'll help when you're down.
( G2b + G1b + Bb )
Why are you hitting yourself?
( G2a + G1a + Ba )
C'mon hit me instead.
( G2a + G1a + Ba )
Let's pick up your will.
(G2a + G1a + Ba )
It's grown fat and lazy.
( G2a + G1a + Ba sem o C no final ) 2x
I'm sympathetic as well.
Don't go on me now.

Refrão 2:

D E G C D
And I'm not living this life without you. I'm selfish and clear.
E G C D E G
You're not leaving here without me. I don't wanna be without my best friend.
C ( Riff c ) (G2a + G1a + Ba ) 3x
Wake up to see you could have it all.

( G2a + G1a + Ba sem o C no final )várias vezes!
nesta hora uma das guitarras, não sei qual, toca alguns riffs e um solinho.
Depois do solinho, apenas o baixo e a bateria continuam.


-----------------------------------------------------------------------------------------
------5-7-7b-5------5-7-7b-5------5-7-7b-5------5-7-7b-5------5-7-7b-5------5-7-7b-5-----
-7--7----------7--7----------7--7----------7--7----------7--7----------7--7----------7---
-----------------------------------------------------------------------------------------

-----------------------------------------------------------------------
---5-7-7b-5------------------5-7-7b-5----------------------------------
-7----------3-3-3-3-3-3--7-7----------3-3-3-3-3-3----------------------
-----------------------------------------------------------------------

quando o baixo tocar o "dó? Eddie começa a cantar

Cause there is but you.
And something within you.
It's taken control.
( G2a + G1a + Ba )
Let's beat it. Get up. Let's go.
( G2a + G1a + Ba ) ( G2a + G1a + Ba )
Oh you're in your own world, let's see the whole world.
( G2a + G1a + Ba sem o C no final ) 2x
Let's pick up your soul.

Refrão final ( como os outros )

Fuck me if I say something you don't wanna hear. Fuck me.
Fuck me if you only hear the treble in your head.
( Riff c ) ( G2a + G1a + Ba )
Please help me to help you help yourseeeeeeeeeelf.
( G2a + G1a + Ba ) ( G2a + G1a + Ba ) ( G2a + G1a + Ba ) ( G2a + G1a + Ba )
Help me help yourseeeeeeeeeeeeeeeelf. Help me...

Terminam com ( G2a + G1a + Ba ) várias vezes e trocando uma ou outra nota ou acorde nos riffs.

ACORDES PARA GUITARRA

PIANO UKELELE


COMENTARIOS

Aún no hay comentarios,

¡escribe el primero!

Escribe una pregunta, duda o comentario sobre esta canción, te responderemos a la brevedad.

Las más tocadas de Pearl Jam

Toca una Canción al Azar de Pearl Jam