Smile
Pearl Jam
Acordes

Subida por Sergio2121
Álbum: No Code ( 1996)


Más Versiones
Ver. 2 Ver. 3

Cambiar Cifrado
Americano Latino

Cambiar Tonalidad
-1 +1

Partir Pantalla Imprimir FAQ

+A
-A


Ver solo la LETRA
Versão 1
-======-

Intro / Versos: E A B A
|------------------10-------------------------------------------------
|-----------10h12-----------------------------------------------------
|------7--------------------------------------------------------------
|--7h9----------------------------------------------------------------
|---------------------------------------------------------------------
|---------------------------------------------------------------------

Riff 1:
|---------------------------------------------------------------------
|---------------------------------------------------------------------
|--13-17b(1/4)r-----15~------12-13~--13-12~--17-15-----13~-13-12------
|----------------------------------------------------------------12~~-
|---------------------------------------------------------------------
|---------------------------------------------------------------------

Verso:
|---------------------------------------------------------------------
|---------------------------------------------------------------------
|------------------2-2-----4-4----------------------------------------
|-------2--2--2-2--2-2-4-4-4-4----------------------------------------
|--2-2--2--2--0-0------2-2-----s6-4-2---------------------------------
|--0-0--------------------------------0-------------------------------

|---------------------------------------------------------------------
|---------------------------------------------------------------------
|-----------------2-2-----4-4---7---7-9-7-----------------------------
|------2--2--2-2--2-2-4-4-4-4-----9-------9s--------------------------
|--2-2-2--2--0-0------2-2---------------------------------------------
|--0-0----------------------------------------------------------------

Riff 2:
|----------------------------17b(1/4)-19~~----------------------------
|--13~b(1/4)13-13-12~------------------------17~~---20-15~------------
|---------------------------------------------------------------------
|---------------------------------------------------------------------
|---------------------------------------------------------------------
|---------------------------------------------------------------------

Refrão:
|-3--3--------------2-2-----------------------------------------------
|-3--3-----1--------3-3-----------------------------------------------
|-0--0-----0--------2-2-----this played over another------------------
|-0--0-----2--0h2p0-0-0-----------guitar playing: G C D|---------------
|-2--2-2h3-3----------------------------------------------------------
|-3--3----------------------------------------------------------------

|---------------------------------------------------------------------
|---------------------------------------------------------------------
|-9-9-9-9-9-9-9-9s16-16-----------------------------------------------
|-7-7-7-7-7-7-7-7s14-14-----------------------------------------------
|---------------------------------------------------------------------
|---------------------------------------------------------------------

Riff 3:
|-------------------------------------------------------------------------------------
|17~~-17b-17-17-15~---17b-17b-17b-17-15~---13-12~--13b-13b-13-12~~---10b-10b-10/8~~~~-
|-------------------------------------------------------------------------------------
|-------------------------------------------------------------------------------------
|-------------------------------------------------------------------------------------
|-------------------------------------------------------------------------------------

Solo:
|---------------------------------------------------------------------
|---------------------------------------------------------------------
|-----7-9-7-----7-9~~-----7-9-7-----7-9~~-----7-9-7-----7-------------
|-7h9-------7h9-------7h9-------7h9-------7h9-------7h9---------------
|---------------------------------------------------------------------
|---------------------------------------------------------------------

|-12-10--12-10-------12-10--------------------------------------------
|------------------7-------------7---leads into chorus----------------
|--------------7h9-----------7h9--------------------------------------
|---------------------------------------------------------------------
|---------------------------------------------------------------------
|---------------------------------------------------------------------

( E A B A )
|---------------------------------------------------------------------
|---------------------------------------------------------------------
|---------------------------------------------------------------------
|---------------------------------------------------------------------
|------5-7-5-----5--7~----repeat and fade|----------------------------
|--5h7-------5h7------------------------------------------------------


Versão 2
-======-

(07/06/99)

-|-------------------------------------------------------------|--------------
-|-------------------------------------------------------------|--------------
-|--------------x-x--2-x-x-----x-x-4-x-x-4---x-x-x-2-2---------|--------------
-|--2--x-x------x-x--2-x-x-0h2-x-x-4-x-x-4---x-x-x-2-2--0h2p0--|--------------
-|--2--x-x--0h2-x-x--0-x-x-0---x-x-2-x-x-0h2-x-x-x-0-0---------|--------------
-|--0--x-x--0--------------------------------------------------|--------------
Intro Stone Funky Rhythm : Improvise With The Strumming Pattern. x4

-|------------|---------------|-------------------------------|---------------
-|------------|--------15----|------------------------15----|---------------
-|------------|--14h16--------|--------------/---14h16--------|---------------
-|--------12--|---------------|--------12---/-----------------|---------------
-|--12h14-----|---------------|--12h14------------------------|---------------
-|------------|---------------|-------------------------------|---------------
Mike 1st Time 2nd Time

-|-------------------------------------------------------------|--------------
-|-------------------------------------------------------------|--------------
-|--------------x-x--2-x-x-----x-x-4-x-x-4---x-x-x-2-2---------|--------------
-|--2--x-x------x-x--2-x-x-0h2-x-x-4-x-x-4---x-x-x-2-2--0h2p0--|--------------
-|--2--x-x--0h2-x-x--0-x-x-2---x-x-2-x-x-0h2-x-x-x-0-0---------|--------------
-|--0--x-x--0--------------------------------------------------|--------------
Verse Stone With Fill 1

-|-------------------------------------------------------------|--------------
-|-------------------------------------------------------------|--------------
-|--------------x-x--2-x-x-----x-x-4-x-x-4---x-x-x-2-2---------|--------------
-|--2--x-x------x-x--2-x-x-0h2-x-x-4-x-x-4---x-x-x-2-2--0h2p0--|--------------
-|--2--x-x--0h2-x-x--0-x-x-2---x-x-2-x-x-0h2-x-x-x-0-0---------|--------------
-|--0--x-x--0--------------------------------------------------|--------------
With Fill 1

-|-------------------------------------------------------------|--------------
-|-------------------------------------------------------------|--------------
-|-------------x-x--2--x-x-----x-x-4-x-x-4---x-x-x-2-2---------|--------------
-|--2-x-x------x-x--2--x-x-0h2-x-x-4-x-x-4---x-x-x-2-2--0h2p0--|--------------
-|--2-x-x--0h2-x-x--0--x-x-2---x-x-2-x-x-0h2-x-x-x-0-0---------|--------------
-|--0-x-x--0---------------------------------------------------|--------------
With Fill 1

-|-------------------------------------------------------------|--------------
-|-------------------------------------------------------------|--------------
-|-------------x-x--2--x-x-----x-x-4-x-x-4---x-x-x-2-2---------|--------------
-|--2-x-x------x-x--2--x-x-0h2-x-x-4-x-x-4---x-x-x-2-2--0h2p0--|--------------
-|--2-x-x--0h2-x-x--0--x-x-2---x-x-2-x-x-0h2-x-x-x-0-0---------|--------------
-|--0-x-x--2---------------------------------------------------|--------------
With Fill 1

-|-------------------------------------------------------------|--------------
-|-------------------------------------------------------------|--------------
-|-------------x-x--2--x-x-----x-x-4-x-x-4---x-x-x-2-2---------|--------------
-|--2-x-x------x-x--2--x-x-0h2-x-x-4-x-x-4---x-x-x-2-2--0h2p0--|--------------
-|--2-x-x--0h2-x-x--0--x-x-2---x-x-2-x-x-0h2-x-x-x-0-0---------|--------------
-|--0-x-x--2---------------------------------------------------|--------------
Hamonic Solo-----------------------------------------------|

-|-------------------------------------------------------------|--------------
-|-------------------------------------------------------------|--------------
-|-------------x-x--2--x-x-----x-x-4-x-x-4---x-x-x-2-2---------|--------------
-|--2-x-x------x-x--2--x-x-0h2-x-x-4-x-x-4---x-x-x-2-2--0h2p0--|--------------
-|--2-x-x--0h2-x-x--0--x-x-2---x-x-2-x-x-0h2-x-x-x-0-0---------|--------------
-|--0-x-x--2---------------------------------------------------|--------------
|----------------------------------------------------------|

-|-------------------------------------------------------------|--------------
-|-------------------------------------------------------------|--------------
-|-------------x-x--2--x-x-----x-x-4-x-x-4---x-x-x-2-2---------|--------------
-|--2-x-x------x-x--2--x-x-0h2-x-x-4-x-x-4---x-x-x-2-2--0h2p0--|--------------
-|--2-x-x--0h2-x-x--0--x-x-2---x-x-2-x-x-0h2-x-x-x-0-0---------|--------------
-|--0-x-x--2---------------------------------------------------|--------------
With Fill 2

-|-------------------------------------------------------------|--------------
-|-------------------------------------------------------------|--------------
-|-------------x-x--2--x-x-----x-x-4-x-x-4---x-x-x-2-2---------|--------------
-|--2-x-x------x-x--2--x-x-0h2-x-x-4-x-x-4---x-x-x-2-2--0h2p0--|--------------
-|--2-x-x--0h2-x-x--0--x-x-2---x-x-2-x-x-0h2-x-x-x-0-0---------|--------------
-|--0-x-x--2---------------------------------------------------|--------------
With Fill 3

-|-------------------------------------------------------------|--------------
-|-------------------------------------------------------------|--------------
-|-------------x-x--2--x-x-----x-x-4-x-x-4---x-x-x-2-2---------|--------------
-|--2-x-x------x-x--2--x-x-0h2-x-x-4-x-x-4---x-x-x-2-2--0h2p0--|--------------
-|--2-x-x--0h2-x-x--0--x-x-2---x-x-2-x-x-0h2-x-x-x-0-0---------|--------------
-|--0-x-x--2---------------------------------------------------|--------------

-|-------------------------------------------|--------------------------------
-|-------------------------------------------|--------------------------------
-|------------x-x--2--x-x-----x-x-4-x-x-4-4--|--------------------------------
-|--2-x-x-----x-x--2--x-x-0h2-x-x-4-x-x-4-4--|--------------------------------
-|--2-x-x-0h2-x-x--0--x-x-2---x-x-2-x-x-2-2--|--------------------------------
-|--0-x-x-2----------------------------------|--------------------------------
With Fill 4

-|-------------------------------------------------|--------------------------
-|-------------------------------------------------|--------------------------
-|-------------------------------------------------|--------------------------
-|----------------2-x-x-0h2-x-x-4-x-x-4-x-x-2-2-2--|--------------------------
-|--2-x-x-0h2-x-x----------------------------------|--------------------------
-|-------------------------------------------------|--------------------------
Mike During The Verse After The Harmonic Solo Except When Playing Fills
-|---------|--------------------------------|-------------------|-------------
-|---------|--------------------------------|-------------------|-------------
-|---------|--------------------------------|-------------------|-------------
-|---------|-----x-x-x-x-x------------------|-------------------|-------------
-|---12---|-----x-x-x-x-x------------------|--5h7-5------------|-------------
-|---------|-----x-x-x-x-x------------------|--------7-53p0-0--|-------------
Fill 1 Mike During The Harmonica Solo Fill 2

-|---------------------------|-----------|------------------------------------
-|---------------------------|-----------|------------------------------------
-|---------------------------|-----------|------------------------------------
-|--12-14-12-12h14p12--------|-----------|------------------------------------
-|--------------------10-----|---/14-----|------------------------------------
-|-----------------------12--|-----------|------------------------------------
Fill 3 Fill 4

-|--3--3--3--3--3--3--3--3--|-------------------------------------------------
-|--3--3--3--3--3--3--3--3--|-------------------------------------------------
-|--0--0--0--0--0--0--0--0--|-------------------------------------------------
-|--0--0--2--2--0--0--2--2--|-------------------------------------------------
-|--2--2--3--3--2--2--3--3--|-------------------------------------------------
-|--3--3--------------------|-------------------------------------------------
Chorus Stone x2

-|--------------------------|----------------------|--------------------------
-|--------------------------|----------------------|--------------------------
-|--------------------------|----------------------|--------------------------
-|--------------------------|----------------------|--------------------------
-|--10--7--5h7-5--5h7-/-10--|--10--7--5h7-5--/-10--|--------------------------
-|--------------------------|----------------------|--------------------------
Mike

-|---------------------------|------------------|-----------------------------
-|---------------------------|------------------|-----------------------------
-|---------------------------|------------------|-----------------------------
-|---------------------------|------------------|-----------------------------
-|--10--7--5h7--5--5h7-/-10--|--10--7--5--5--5--|-----------------------------
-|---------------------------|------------------|-----------------------------

-|-----------------------------------------|----------------------------------
-|-----------------------------------------|----------------------------------
-|-----------------------------------------|----------------------------------
-|--14-14-14-14-14-14-14-14-14-14/--x-x-x--|----------------------------------
-|----------------------------------x-x-x--|----------------------------------
-|----------------------------------x-x-x--|----------------------------------
Solo Mike 2x
-|------------------------------|-------------------------------|-------------
-|------------------------------|-------------------------------|-------------
-|------------------------------|-------------------------------|-------------
-|--------12-14-12-------12-14--|--------12-14-12-------12---/--|-------------
-|--12h14----------12h14--------|--12h14----------12h14-----/---|-------------
-|------------------------------|-------------------------------|-------------
3x
-|-------------------------------------------------|---------|----------------
-|--17--15------17--15------------17--15-----------|---------|----------------
-|-------------------------------------------------|---------|----------------
-|----------14---------------12----------------12--|--12-12--|----------------
-|---------------------12h14-------------12h14-----|---------|----------------
-|-------------------------------------------------|---------|----------------

-|--3--3--3--3--3--3--3--3--|-------------------------------------------------
-|--3--3--3--3--3--3--3--3--|-------------------------------------------------
-|--0--0--0--0--0--0--0--0--|-------------------------------------------------
-|--0--0--2--2--0--0--2--2--|-------------------------------------------------
-|--2--2--3--3--2--2--3--3--|-------------------------------------------------
-|--3--3--------x--x--------|-------------------------------------------------
Chorus Stone 2x
-|---------------------------|---------------------|--------------------------
-|---------------------------|---------------------|--------------------------
-|---------------------------|---------------------|--------------------------
-|---------------------------|---------------------|--------------------------
-|--10--7--5h7-5--5h7--/-10--|--10--7--5h7-7-/-10--|--------------------------
-|---------------------------|---------------------|--------------------------
Mike

-|-----------------------|-----------------------------|----------------------
-|-----------------------|-----------------------------|----------------------
-|-----------------------|-----------------------------|----------------------
-|-----------------------|-----------------------------|----------------------
-|--10-7-5h7-5-5h7-/-10--|--10--10-12-10-12-12/14-/17--|----------------------
-|-----------------------|-----------------------------|----------------------

-|--2--|----------------------------------------------------------------------
-|--3--|----------------------------------------------------------------------
-|--2--|----------------------------------------------------------------------
-|--0--|----------------------------------------------------------------------
-|-----|----------------------------------------------------------------------
-|-----|----------------------------------------------------------------------
Bridge Stone Strum

-|---------------------|---------------------------|--------------------------
-|---------------------|---------------------------|--------------------------
-|------------/11--9---|---------------------------|--------------------------
-|--------12---/9--7---|--------12-------12--------|--------------------------
-|--12h14--------------|--12h14----12h14----14-12--|--------------------------
-|---------------------|---------------------------|--------------------------
Mikey

-|-------------------------------------------------------------|--------------
-|-------------------------------------------------------------|--------------
-|-------------x-x--2-x-x-----x-x--4-x-x-4---x-x-x-2-2---------|--------------
-|--2-x-x------x-x--2-x-x-0h2-x-x--4-x-x-4---x-x-x-2-2--0h2p0--|--------------
-|--2-x-x--0h2-x-x--0-x-x-0---x-x--2-x-x-0h2-x-x-x-0-0---------|--------------
-|--0-x-x--0---------------------------------------------------|--------------
Outro Stone

-|---------------------|-------------------|-------------------|--------------
-|---------------------|-------------------|-------------------|--------------
-|---------------------|-------------------|-------------------|--------------
-|---------------------|-------------------|-------------------|--------------
-|------5-7-5-----5-7--|------5-7-5-----5--|------5-7-5-----5--|--------------
-|--5h7-------5h7------|--5h7-------5h7----|--5h7-------5h7----|--------------
Mike Repeat Till End

-|---------------------|---------------------|---------------------|----------
-|---------------------|---------------------|---------------------|----------
-|---------------------|---------------------|---------------------|----------
-|---------------------|---------------------|---------------------|----------
-|------5-7-5-----5-7--|------5-7-5-----5-7--|------5-7-5-----5-7--|----------
-|--5h7-------5h7------|--5h7-------5h7------|--5h7-------5h7------|----------

-|---------------------|-------------------|---------------|------------------
-|---------------------|-------------------|---------------|------------------
-|---------------------|-------------------|---------------|------------------
-|---------------------|-------------------|---------------|------------------
-|------5-7-5-----5-7--|------5-7-5-----5--|------5-7vvvv--|------------------
-|--5h7-------5h7------|--5h7-------5h7----|--5h7----------|------------------

-|-------------------|-------------------------------------|------------------
-|-------------------|-------------------------------------|------------------
-|-------------------|---------------2-------4-------2-----|------------------
-|-------------------|------2------2---2---4---4---2---2---|------------------
-|--5h7-5h7-5h7-5----|----2---2--0-------2-------0---------|------------------
-|----------------7--|--0----------------------------------|------------------
Gtr. 3 Repeat Till End Fade......

ACORDES PARA GUITARRA

PIANO UKELELE
E
A
B


COMENTARIOS

Aún no hay comentarios,

¡escribe el primero!

Escribe una pregunta, duda o comentario sobre esta canción, te responderemos a la brevedad.

Las más tocadas de Pearl Jam

Toca una Canción al Azar de Pearl Jam
E
A
B