Sometimes
Pearl Jam
Acordes

Subida por rlcalderon1
Álbum: No Code ( 1996)



+A
-A
Author/Artist: Pearl Jam
Title: Sometimes
Album: No Code
Transcribed by: Chris Wilson & Richard van Wingerden

Last Updated - 03/10/1999
Here are my ideas on your tab, Chris!
Version 1

-|-------------------|------------------|------------------|----------------|-
-|-------------------|------------------|------------------|----------------|-
-|------5-----5---5--|------5-------5---|-----5-----5---5--|-----5-------5--|-
-|--0-0-0-0-0-0-0-0--|--6-6-6-6-7-7-7-7-|-0-0-0-0-0-0-0-0--|-6-6-6-6-7-7-7-7|-
-|-------------------|------------------|------------------|----------------|-
-|-------------------|------------------|------------------|----------------|-
Intro Ed PM

-|-------------------|------------------|-----17------17---|----------------|-
-|-------------------|------------------|-----17---17-17-17|----------------|-
-|-------------------|----------9-9-9-10|-11---------------|----------------|-
-|-------------------|------------------|------------------|----------------|-
-|-------------------|------------------|------------------|----------------|-
-|-------------------|------------------|------------------|----------------|-
Mike

-|-------------------|------------------|------------------|----------------|-
-|-------------------|------------------|------------------|----------------|-
-|------5-----5---5--|------5-------5---|-----5-----5-5-5--|-----5-------5--|-
-|--0-0-0-0-0-0-0-0--|--6-6-6-6-7-7-7-7-|-0-0-0-0-0-0-0-0--|-6-6-6-6-7-7-7-7|-
-|-------------------|------------------|------------------|----------------|-
-|-------------------|------------------|------------------|----------------|-
Ed

-|------------17-----|------------------|-----------17-----|------------17--|-
-|------17-----------|------------------|-----17-----------|----------17--17|-
-|-------------------|------9-9-9-9-9-10|-11---------------|----------------|-
-|-------------------|------------------|------------------|----------------|-
-|-------------------|------------------|------------------|----------------|-
-|-------------------|------------------|------------------|----------------|-
Mike |P.M.|

-|-------------------|------------------|------------------|----------------|-
-|-------------------|------------------|------------------|----------------|-
-|------5-----5------|------5-------5---|------5-----5-5-5-|-----5p4-----5--|-
-|------7-----7------|------6-------7---|------7-----7-7-7-|-----6-------7--|-
-|-------------------|------------------|------------------|----------------|-
-|-------------------|------------------|------------------|----------------|-
Stone

-|-------------------|------------------|------------------|----------------|-
-|-------------------|------------------|------------------|----------------|-
-|------5-----5-5----|------5-------5---|-----5-----5---5--|-----5-------5--|-
-|--0-0-0-0-0-0-0-0--|--6-6-6-6-7-7-7-7-|-0-0-0-0-0-0-0-0--|-6-6-6-6-7-7-7-7|-
-|-------------------|------------------|------------------|----------------|-
-|-------------------|------------------|------------------|----------------|-
1Verse Ed PM Execpt When He Hits The C s

-|-------------------|------------------|------------------|-----------17---|-
-|-----------17-17---|------------------|----------17--17--|-x-x-x-x-17--17-|-
-|-------------------|----------9-9-9-10|-11---------------|----------------|-
-|-------------------|------------------|------------------|----------------|-
-|-------------------|------------------|------------------|----------------|-
-|-------------------|------------------|------------------|----------------|-
1Verse Mike

-|-------------------|------------------|------------------|----------------|-
-|-------------------|------------------|------------------|----------------|-
-|------5-----5-5----|------5-------5---|-----5-----5---5--|-----5-------5-5|-
-|------7-----7-7----|------6-------7---|-----7-----7---7--|-----6-------7-7|-
-|-------------------|------------------|------------------|----------------|-
-|-------------------|------------------|------------------|----------------|-
1Verse Stone

-|-------------------|------------------|------------------|----------------|-
-|-------------------|------------------|------------------|----------------|-
-|------5-----5---5--|------5-------5---|-----5-----5---5--|-----5-------5--|-
-|--0-0-0-0-0-0-0-0--|--6-6-6-6-7-7-7-7-|-0-0-0-0-0-0-0-0--|-6-6-6-6-7-7-7-7|-
-|-------------------|------------------|------------------|----------------|-
-|-------------------|------------------|------------------|----------------|-
2Verse Ed

-|-------------------|------------------|------------------|------------17--|-
-|-------------------|----*-------------|------------------|----17-17-17--17|-
-|-------------------|----9-9-9-9-9-9-10|-11-11------------|----------------|-
-|-------------------|------------------|------------------|----------------|-
-|-------------------|------------------|------------------|----------------|-
-|-------------------|------------------|------------------|----------------|-
2Verse Mike *gradually release slight P.M.

-|-------------------|------------------|------------------|----------------|-
-|-------------------|------------------|------------------|----------------|-
-|------5-----5---5--|------5-------5---|-----5-----5---5--|-----5-------5--|-
-|------7-----7---7--|------6-------7---|-----7-----7---7--|-----6-------7--|-
-|-------------------|------------------|------------------|----------------|-
-|-------------------|------------------|------------------|----------------|-
2Verse Stone

-|-------------------|------------------|------------------|----------------|-
-|-------------------|------------------|------------------|----------------|-
-|------5-----5---5--|------5-------5---|-----5-----5---5--|-----5-------5--|-
-|--0-0-0-0-0-0-0-0--|--6-6-6-6-7-7-7-7-|-0-0-0-0-0-0-0-0--|-6-6-6-6-7-7-7-7|-
-|-------------------|------------------|------------------|----------------|-
-|-------------------|------------------|------------------|----------------|-
3Verse Ed

-|-------------------|------------------|------------------|----------------|-
-|-------------------|----*-------------|------------------|----------------|-
-|-------------------|----9-9-9-9-9-9-10|-11---------------|----------------|-
-|-------------------|------------------|------------------|----------------|-
-|-------------------|------------------|------------------|----------------|-
-|-------------------|------------------|------------------|----------------|-
3Verse Mike *gradually release slight P.M.

-|-------------------|------------------|------------------|----------------|-
-|-------------------|------------------|------------------|----------------|-
-|------5-----5---5--|------5-------5-5-|-----5-----5---5--|-----5-------5--|-
-|------7-----7---7--|------6-------7-7-|-----7-----7---7--|-----6-------7--|-
-|-------------------|------------------|------------------|----------------|-
-|-------------------|------------------|------------------|----------------|-
3Verse Stone

-|-----------------|-----------------|-----------------|-----------------|----
-|-----------------|-----------------|-----------------|-----------------|----
-|-----------------|-----------------|-----------------|-----------------|----
-|-----------------|-----------------|-----------------|-----------------|----
-|-----3-----3---3-|-----3-------3---|-----3-----3---3-|-----3-------3---|----
-|-1-1---1-1---1---|-0-0---0-1-1---1-|-1-1---1-1---1---|-0-0---0-1-1---1-|----
Chorus Ed

-|-----------------|-----------------|-----------------|-----------------|----
-|-----------------|-----------------|-----------------|-----------------|----
-|-10--------------|-9---------------|-----------------|-----------------|----
-|-----------------|-----------------|-----------------|-----------------|----
-|-----------------|-----------------|-----------------|-----------------|----
-|-----------------|-----------------|-----------------|-----------------|----
Mike

-|-----------------|-----------------|-----------------|-----------------|----
-|-----------------|-----------------|-----------------|-----------------|----
-|-----------------|-----------------|-----------------|-----------------|----
-|-----------------|-----------------|-----------------|-----------------|----
-|-----3-----3---3-|-----3-------3---|-----3-----3---3-|-----3-------3---|----
-|-1-1---1-1---1---|-0-0---0-1-1---1-|-1-1---1-1---1---|-0-0---0-1-1---1-|----
Ed

-|-----------------|-12------13------|-----------------|-----------------|----
-|-----------------|-----------------|-----------------|-----------------|----
-|-----------------|-----------------|-----------------|-----------------|----
-|-----------------|-----------------|-----------------|-----------------|----
-|-----------------|-----------------|-----------------|-----------------|----
-|-----------------|-----------------|-----------------|-----------------|----
Mike

-|-----------------|-----------------|-----------------|-----------------|----
-|-----------------|-----------------|-----------------|-----------------|----
-|-----------------|-----------------|-----------------|-----------------|----
-|-----------------|-----------------|-----------------|-----------------|----
-|-----3-----3---3-|-----3-------3---|-----3-----3---3-|-----3-------3---|----
-|-1-1---1-1---1---|-0-0---0-1-1---1-|-1-1---1-1---1---|-0-0---0-1-1---1-|----
Ed

-|-----------------|------------12-12|---13------------|---------13-13-13|----
-|-----------------|-----------------|-----------------|-----------------|----
-|-----------------|-----------------|-----------------|-----------------|----
-|-----------------|-----------------|-----------------|-----------------|----
-|-----------------|-----------------|-----------------|-----------------|----
-|-----------------|-----------------|-----------------|-----------------|----
Mike

-|-----------------|-----------------|-----------------|-----------------|----
-|-----------------|-----------------|-----------------|-----------------|----
-|-----------------|-----------------|-----------------|-----------------|----
-|-----------------|-----------------|-----------------|-----------------|----
-|-----3-----3---3-|-----3-------3---|-----3-----3---3-|-----3-------3---|----
-|-1-1---1-1---1---|-0-0---0-1-1---1-|-1-1---1-1---1---|-0-0---0-1-1---1-|----
Ed

-|13-13-13-13-13-13|13-13-13-13-13-13|12-12-12-12-12-12|12-12-12-12-12-12|----
-|-----------------|-----------------|-----------------|-----------------|----
-|-----------------|-----------------|-----------------|-----------------|----
-|-----------------|-----------------|-----------------|-----------------|----
-|-----------------|-----------------|-----------------|-----------------|----
-|-----------------|-----------------|-----------------|-----------------|----
Mike (play 8 notes in each measure, I have only written 6)
-|-----------------|-----------------|----------------------------------------
-|-----------------|-----------------|----------------------------------------
-|-----------------|-----------------|----------------------------------------
-|-----------------|-----------------|----------------------------------------
-|-----------------|-----------------|----------------------------------------
-|-6-6-6-6-6-6-6-6-|-7-7-7-7-7-7-7-7-|----------------------------------------
Ed post chorus

-|13-13-13-13-13-13|15-15-15-15-15-15|----------------------------------------
-|-----------------|-----------------|----------------------------------------
-|-----------------|-----------------|----------------------------------------
-|-----------------|-----------------|----------------------------------------
-|-----------------|-----------------|----------------------------------------
-|-----------------|-----------------|----------------------------------------
Mike (play 8 notes again)
-|-------------------|-------------------|-------------------|----------------
-|-------------------|-------------------|-------------------|----------------
-|-------------------|-------------------|-------------------|----------------
-|-------------------|-------------------|-------------------|----------------
-|-------------------|-------------------|-------------------|----------------
-|--8-8-8-8-8-8-8-8--|--5-5-5-5-5-5-5-5--|--6-6-6-6-6-6-6-6--|----------------
Bridge

-|-------------------|-------------------|-------------------|----------------
-|-------------------|-------------------|-------------------|----------------
-|-------------------|-------------------|-------------------|----------------
-|-------------------|-------------------|-------------------|----------------
-|-------------------|-------------------|-------------------|----------------
-|--7-7-7-7-7-7-7-7--|--8-8-8-8-8-8-8-8--|--6-6-6-6-6-6-6-6--|----------------


-|-------------------|-------------------|-------------------|----------------
-|-------------------|-------------------|-------------------|----------------
-|-------------------|-------------------|-------------------|----------------
-|-------------------|-------------------|-------------------|----------------
-|-------------------|-------------------|-------------------|----------------
-|--7-7-7-7-7-7-7-7--|--8-8-8-8-8-8-8-8--|--6-6-6-6-6-6-6-6--|----------------


-|-----------------|----------------------------------------------------------
-|-----------------|----------------------------------------------------------
-|-----------------|----------------------------------------------------------
-|-----------------|----------------------------------------------------------
-|-----------------|----------------------------------------------------------
-|--7-7-7-7-7-7-7--|----------------------------------------------------------


-|--------17-------17----17--|------------------------------------------------
-|--18-18----18-18----18-----|------------------------------------------------
-|---------------------------|------------------------------------------------
-|---------------------------|------------------------------------------------
-|---------------------------|------------------------------------------------
-|---------------------------|------------------------------------------------
Mike Bridge Repeat (first time omit the first two notes)

-|-------------------|-------------------|------------------------------------
-|-------------------|-------------------|------------------------------------
-|-------------------|-------------------|------------------------------------
-|------3-----3---3--|------3-----3---3--|------------------------------------
-|-------------------|-------------------|------------------------------------
-|--1-1---1-1---1----|--0-0---0-0---0----|------------------------------------
Outro Repeat Till End Fade..... With Fill 5 Till End

-|-13-----15-12-|-13-----15-12-|-10-13--15-12-|-13-----15-12-|-17-13--15-12-|-
-|--------------|--------------|--------------|--------------|--------------|-
-|--------------|--------------|--------------|--------------|--------------|-
-|--------------|--------------|--------------|--------------|--------------|-
-|--------------|--------------|--------------|--------------|--------------|-
-|--------------|--------------|--------------|--------------|--------------|-
Fill 5

-|-10-13--15-12-|-13-----15-12-|-10-13--15-12-|-------------------------------
-|--------------|--------------|--------------|-------------------------------
-|--------------|--------------|--------------|-------------------------------
-|--------------|--------------|--------------|-------------------------------
-|--------------|--------------|--------------|-------------------------------
-|--------------|--------------|--------------|-------------------------------

ACORDES PARA GUITARRA

PIANO UKELELE


COMENTARIOS

Aún no hay comentarios,

¡escribe el primero!

Escribe una pregunta, duda o comentario sobre esta canción, te responderemos a la brevedad.

Las más tocadas de Pearl Jam

Toca una Canción al Azar de Pearl Jam