Thin Air
Pearl Jam
Acordes

Subida por LEIDER100
Álbum: Binaural ( 2000)


Más Versiones
Ver. 2 Ver. 3

Cambiar Cifrado
Americano Latino

Cambiar Tonalidad
-1 +1

Partir Pantalla Imprimir FAQ

+A
-A
Transcribed by: Evan Cowan


Outro lead is performed with a slide

-|------------------------------------------------------------------------|---
-|-0---0----0--x-x-x------------------------------------------------------|---
-|-1---1--1-1--x-x-x-------1--1---1----------1-1-1--1-------1-1-1--1------|---
-|-2---2--2-2--x-x-x--2----2--2-2-2--2----2--2-2-2--2----2--2-2-2--2----2-|---
-|-2---2--2-2--x-x-x--2----2--2-2-2--2----2--2-2-2--2----2--2-2-2--2----2-|---
-|-----0--0-0---------0--0-0--0-0-0--0--0-0--0-0-0--0--0-0--0-0-0--0--0-0-|---
G1

Verse
-|----------|------------------------------------------------------------|----
-|----------|----------------1-----1--1-1-1------------------------------|----
-|--1--1--1-|-1-------1-1-1--0-----0--0-0-0-1----1--1-1-1--1----1--1-1-1-|----
-|--2--2--2-|-2----2--2-2-2--2-----2--2-2-2-2----2--2-2-2--2----2--2-2-2-|----
-|--2--2--2-|-2----2--2-2-2--3---3-3--3-3-3-2----2--2-2-2--2----2--2-2-2-|----
-|--0--0--0-|-0--0-0--0-0-0-----------------0--0-0--0-0-0--0--0-0--0-0-0-|----
G1 There's a light when my baby's in my arms There's a

-|-------------------------------------------------------------------|--------
-|------------------1------1---1--1--1-------------------------------|--------
-|--1----1--1-1-1---0------0---0--0--0--1----1--1-1-1--1----1--1-1-1-|--------
-|--2----2--2-2-2---2------2---2--2--2--2----2--2-2-2--2----2--2-2-2-|--------
-|--2----2--2-2-2---3---3--3---3--3--3--2----2--2-2-2--2----2--2-2-2-|--------
-|--0--0-0--0-0-0-----------------------0--0-0--0-0-0--0--0-0--0-0-0-|--------
G1 Light when the window shades are drawn hesitate

-|--------------------------------------------------------------|-------------
-|-----------------1-----1--1-1-1-------------------------------|-------------
-|--1----1--1-1-1--0-----0--0-0-0-1----1--1-1-1--1----1--1-1-1--|-------------
-|--2----2--2-2-2--2-----2--2-2-2-2----2--2-2-2--2----2--2-2-2--|-------------
-|--2----2--2-2-2--3---3-3--3-3-3-2----2--2-2-2--2----2--2-2-2--|-------------
-|--0--0-0--0-0-0-----------------0--0-0--0-0-0--0--0-0--0-0-0--|-------------
G1 when I feel I may do harm to her wash it off

-|-----------------------------------------------------------------|----------
-|--------------------1-----1--1-1-1-------------------------------|----------
-|--1----1--1--1--1---0-----0--0-0-0--1----1--1-1-1--1----1--1-1-1-|----------
-|--2----2--2--2--2---2-----2--2-2-2--2----2--2-2-2--2----2--2-2-2-|----------
-|--2----2--2--2--2---3---3-3--3-3-3--2----2--2-2-2--2----2--2-2-2-|----------
-|--0--0-0--0--0--0-------------------0--0-0--0-0-0--0--0-0--0-0-0-|----------
G1 cause this feeling we can share and I know

Chorus
-|-------------------------------0-------------------|------------------------
-|--1----1--1-1-1--3-3-3--2---2--0-------------------|------------------------
-|--0----0--0-0-0--2-2-2--2---2--1----1--1-1-1--1----|------------------------
-|--2----2--2-2-2--0-0-0--2---2--2----2--2-2-2--2----|------------------------
-|--3--3-3--3-3-3---------0---0--2----2--2-2-2--2----|------------------------
-|-------------------------------0--0-0--0-0-0--0----|------------------------
G1 She's reached my heart in thin air

-|--0--------------2------0------0-------------------|------------------------
-|--1--------------3------2------0-------------------|------------------------
-|--0--------------2------2------1-------------------|------------------------
-|--2--------------0------2------2-------------------|------------------------
-|--3---------------------0------2-------------------|------------------------
-|-------------------------------0-------------------|------------------------
G2

Interlude
-|-------0------------------------------------------|------12----|------------
-|---0-2---2---0h2-0--------------------------------|--12--------|------------
-|-3-----------------3---------2----0h1-0h1---------|------------|------------
-|---------------------2-----2---------------2------|------------|------------
-|-------------------------4------------------------|------------|------------
-|-------------------------------0--------------0---|------------|------------
G1 with Fill 1 Fill 1 (G2)

Verse
-|---------------------------------------------------------------|------------
-|-------------------1----1--1-1-1-------------------------------|------------
-|----1----1--1-1-1--0----0--0-0-0--1----1--1-1-1--1----1--1-1-1-|------------
-|----2----2--2-2-2--2----2--2-2-2--2----2--2-2-2--2----2--2-2-2-|------------
-|----2----2--2-2-2--3--3-3--3-3-3--2----2--2-2-2--2----2--2-2-2-|------------
-|----0--0-0--0-0-0-----------------0--0-0--0-0-0--0--0-0--0-0-0-|------------
G1 Byzantine is reflected in our pond there's a

-|----0--------------0--------------0----------------------------|------------
-|----0--------------1--------------0----------------------------|------------
-|----1--------------0--------------1----------------------------|------------
-|----2--------------2--------------2----------------------------|------------
-|----2--------------3--------------2----------------------------|------------
-|----0-----------------------------0----------------------------|------------
G2

-|---------------------------------------------------------------|------------
-|-------------------1----1--1-1-1-------------------------------|------------
-|----1----1--1-1-1--0----0--0-0-0--1----1--1-1-1--1----1--1-1-1-|------------
-|----2----2--2-2-2--2----2--2-2-2--2----2--2-2-2--2----2--2-2-2-|------------
-|----2----2--2-2-2--3--3-3--3-3-3--2----2--2-2-2--2----2--2-2-2-|------------
-|----0--0-0--0-0-0-----------------0--0-0--0-0-0--0--0-0--0-0-0-|------------
G1 Cloud but the water remains calm reaching

-|----0--------------0--------------0----------------------------|------------
-|----0--------------1--------------0----------------9-----------|------------
-|----1--------------0--------------1------------------9--------|------------
-|----2--------------2--------------2----------------------------|------------
-|----2--------------3--------------2----------------------------|------------
-|----0-----------------------------0----------------------------|------------
G2

-|---------------------------------------------------------------|------------
-|-------------------1----1--1-1-1-------------------------------|------------
-|----1----1--1-1-1--0----0--0-0-0--1----1--1-1-1--1----1--1-1-1-|------------
-|----2----2--2-2-2--2----2--2-2-2--2----2--2-2-2--2----2--2-2-2-|------------
-|----2----2--2-2-2--3--3-3--3-3-3--2----2--2-2-2--2----2--2-2-2-|------------
-|----0--0-0--0-0-0-----------------0--0-0--0-0-0--0--0-0--0-0-0-|------------
G1 In the sun's fingers clutch the dawn to pass even

-|----0--------------0--------------0----------------------------|------------
-|----0--------------1--------------0----------------------------|------------
-|----1--------------0--------------1----------------------------|------------
-|----2--------------2--------------2----------------------------|------------
-|----2--------------3--------------2----------------------------|------------
-|----0-----------------------------0----------------------------|------------
G2

-|---------------------------------------------------------------|------------
-|-------------------1----1--1-1-1-------------------------------|------------
-|----1----1--1-1-1--0----0--0-0-0--1----1--1-1-1--1----1--1-1-1-|------------
-|----2----2--2-2-2--2----2--2-2-2--2----2--2-2-2--2----2--2-2-2-|------------
-|----2----2--2-2-2--3--3-3--3-3-3--2----2--2-2-2--2----2--2-2-2-|------------
-|----0--0-0--0-0-0-----------------0--0-0--0-0-0--0--0-0--0-0-0-|------------
G1 Out it's a precious thing to bear and I know

-|----0--------------0--------------0----------------------------|------------
-|----0--------------1--------------0--------------9-------------|------------
-|----1--------------0--------------1----------------9----------|------------
-|----2--------------2--------------2----------------------------|------------
-|----2--------------3--------------2----------------------------|------------
-|----0-----------------------------0----------------------------|------------
G2

Chorus
-|-------------------------------0----------------------------|---------------
-|--1----1--1-1-1--3-3-3--2---2--0----------------------------|---------------
-|--0----0--0-0-0--2-2-2--2---2--1----1--1-1-1--1----1--1-1-1-|---------------
-|--2----2--2-2-2--0-0-0--2---2--2----2--2-2-2--2----2--2-2-2-|---------------
-|--3--3-3--3-3-3---------0---0--2----2--2-2-2--2----2--2-2-2-|---------------
-|-------------------------------0--0-0--0-0-0--0--0-0--0-0-0-|---------------
G1 She's reached my heart in thin air yes I know

-|--0--------------2------0------0----------------------------|---------------
-|--1--------------3------2------0----------------------------|---------------
-|--0--------------2------2------1----------------------------|---------------
-|--2--------------0------2------2----------------------------|---------------
-|--3---------------------0------2----------------------------|---------------
-|-------------------------------0----------------------------|---------------
G2

-|-------------------------------0-----------------------------|--------------
-|--1----1--1-1-1--3-3-3--2---2--0-----------------------------|--------------
-|--0----0--0-0-0--2-2-2--2---2--1----1--1-1-1---1-1-1-1-1-1-1-|--------------
-|--2----2--2-2-2--0-0-0--2---2--2----2--2-2-2---2-2-2-2-2-2-2-|--------------
-|--3--3-3--3-3-3---------0---0--2----2--2-2-2---2-2-2-2-2-2-2-|--------------
-|-------------------------------0--0-0--0-0-0---0-0-0-0-0-0-0-|--------------
G1 She's reached my heart in thin air

-|--0--------------2------0------0-----------------------------|--------------
-|--1--------------3------2------0-----------------------------|--------------
-|--0--------------2------2------1-----------------------------|--------------
-|--2--------------0------2------2---------------2-2-2-2-2-2-2-|--------------
-|--3---------------------0------2---------------2-2-2-2-2-2-2-|--------------
-|-------------------------------0---------------0-0-0-0-0-0-0-|--------------
G2

Bridge
-|--------------------------3-----3---3--3--3-------------------------------|-
-|---1--1--1--1---1--1--1---3-----3---3--3--3--3----3--3-3-3--2----2--2-2-2-|-
-|---2--2--2--0---0--0--0---0-----0---0--0--0--2----2--2-2-2--2----2--2-2-2-|-
-|---3--3--3--2---2--2--2---0-----0---0--0--0--0--0-0--0-0-0--2----2--2-2-2-|-
-|---3--3--3--3---3--3--3---2-----2---2--2--2-----------------0--0-0--0-0-0-|-
-|---1--1--1----------------3--3--3---3--3--3-------------------------------|-
G1 Its not in my past to presume love can keep on moving in both directions

-|---1--------0-------------3-----3---3--3--3--2----2--2-2----0-------------|-
-|---1--------1-------------3-----3---3--3--3--3--------------2-------------|-
-|---2--------0-------------0------------------2--------------2-------------|-
-|---3--------2-------------0------------------0--------------2-------------|-
-|---3--------3-------------2---------------------------------0-------------|-
-|---1----------------------3-----------------------------------------------|-
G2

-|--------------------------3-----3---3--3--3-------------------------------|-
-|---1--1--1--1---1--1--1---3-----3---3--3--3--3----3--3-3-3--2----2--2-2-2-|-
-|---2--2--2--0---0--0--0---0-----0---0--0--0--2----2--2-2-2--2----2--2-2-2-|-
-|---3--3--3--2---2--2--2---0-----0---0--0--0--0--0-0--0-0-0--2----2--2-2-2-|-
-|---3--3--3--3---3--3--3---2-----2---2--2--2-----------------0--0-0--0-0-0-|-
-|---1--1--1----------------3--3--3---3--3--3-------------------------------|-
G1 How to be happy and true is the quest we're taking on together

-|---1--------0-------------3-----3---3--3--3--2----2--2-2------------------|-
-|---1--------1-------------3-----3---3--3--3--3----3--3-3----2-------------|-
-|---2--------0-------------0------------------2--------------2-------2-2-2-|-
-|---3--------2-------------0------------------0--------------2-------2-2-2-|-
-|---3--------3-------------2---------------------------------0-------0-0-0-|-
-|---1----------------------3-----------------------------------------------|-
G2

-|----------------------------------------------------------------|-----------
-|--2-2-2-2-2-2-2--0---------------------0------------------------|-----------
-|--2-2-2-2-2-2-2--1---------------------1------------------------|-----------
-|--2-2-2-2-2-2-2--2---------------------2------------------------|-----------
-|--0-0-0-0-0-0-0--2---------------------2------------------------|-----------
-|-----------------0---------------------0------------------------|-----------
G1 Taking on on on on on taking on on on on on

-|-----------------0---------------------0------------------------|-----------
-|-----------------0---------------------0------------------------|-----------
-|--2-2-2-2-2-2-2--1---------------------1------------------------|-----------
-|--2-2-2-2-2-2-2--2---------------------2------------------------|-----------
-|--0-0-0-0-0-0-0--2---------------------2------------------------|-----------
-|-----------------0---------------------0------------------------|-----------
G2

-|--------------------------------------------------------------------|-------
-|--------------------------------------------------------------------|-------
-|----------------------------------------------4-4-4-4-4-4-4-4-4-4-4-|-------
-|----------------------------------------------4-4-4-4-4-4-4-4-4-4-4-|-------
-|----------------------------------------------2-2-2-2-2-2-2-2-2-2-2-|-------
-|--------------------------------------------------------------------|-------
G1 There's a light when my baby's in my arms And I know

-|--------------------------------------------------------------------|-------
-|--------------------------------------------------------------------|-------
-|------------------------------------------------------------4-4-4-4-|-------
-|------------------------------------------------------------4-4-4-4-|-------
-|------------------------------------------------------------2-2-2-2-|-------
-|--------------------------------------------------------------------|-------
G2

Outro
-|--3----3--3-3-3----------------------------------------------------|--------
-|--3----3--3-3-3--2----0--------------------------------------------|--------
-|--0----0--0-0-0--2----1----1--1--1---4----4--4-4-4---4-4-4-4-4-4-4-|--------
-|--0----0--0-0-0--2----2----2--2--2---4----4--4-4-4---4-4-4-4-4-4-4-|--------
-|--2----2--2-2-2--0----2----2--2--2---2--2-2--2-2-2---2-2-2-2-2-2-2-|--------
-|--3--3-3--3-3-3-------0----0--0--0---------------------------------|--------
G1 She's reached my heart in thin air And I know

-|-------------------------------------------------------------------|--------
-|-------------------------------------------------------------------|--------
-|-------------------------------------------------------------------|--------
-|----------------12---9-------7---7--7/9--9vvv-9vvv-9-9-7/9-7------|--------
-|-------------------------------------------------------------------|--------
-|-------------------------------------------------------------------|--------
G2

-|--3----3--3-3-3----------------------------------------------------|--------
-|--3----3--3-3-3--2----0--------------------------------------------|--------
-|--0----0--0-0-0--2----1----1--1--1---4----4--4-4-4---4-4-4-4-4-4-4-|--------
-|--0----0--0-0-0--2----2----2--2--2---4----4--4-4-4---4-4-4-4-4-4-4-|--------
-|--2----2--2-2-2--0----2----2--2--2---2--2-2--2-2-2---2-2-2-2-2-2-2-|--------
-|--3--3-3--3-3-3-------0----0--0--0---------------------------------|--------
G1 She's reached my heart in thin air And I know

-|-------------------------------------------------------------------|--------
-|-------------------------------------------------------------------|--------
-|---------12--------------------------------------------------------|--------
-|--1412------11-11/1211-9------/12-12/14-vvvvvvv-12-12-12---------|--------
-|-----------------------------------------------------------14vv----|--------
-|-------------------------------------------------------------------|--------
G2

-|--3----3--3-3-3----------------------------------------------------|--------
-|--3----3--3-3-3--2----0--------------------------------------------|--------
-|--0----0--0-0-0--2----1----1--1--1---4----4--4-4-4---4-4-4-4-4-4-4-|--------
-|--0----0--0-0-0--2----2----2--2--2---4----4--4-4-4---4-4-4-4-4-4-4-|--------
-|--2----2--2-2-2--0----2----2--2--2---2--2-2--2-2-2---2-2-2-2-2-2-2-|--------
-|--3--3-3--3-3-3-------0----0--0--0---------------------------------|--------
G1 Yes I know

-|-------------------------------------------------------------------|--------
-|-------------------------------------------------------------------|--------
-|---------------------------------16-/16vvvv-16vvvvvvvvvvvvvvvvv---|--------
-|-1412--11/12----9-7-7-----/--------------------------------------|--------
-|-------------------------------------------------------------------|--------
-|-------------------------------------------------------------------|--------
G2

-|--3-------------------------------------||----------------------------------
-|--3-------------------------------------||----------------------------------
-|--0----------------------2--------------||----------------------------------
-|--0----------------------2---2----------||----------------------------------
-|--2----------------------0---2----------||----------------------------------
-|--3--------------------------0----------||----------------------------------
G1 She's reached my heart

-|----------------------------------------||----------------------------------
-|----------------------------------------||----------------------------------
-|-------------------------6--/7---/9-----||----------------------------------
-|--7/9-----------------------------------||----------------------------------
-|----------------------------------------||----------------------------------
-|----------------------------------------||----------------------------------
G2

ACORDES PARA GUITARRA

PIANO UKELELE


COMENTARIOS

Aún no hay comentarios,

¡escribe el primero!

Escribe una pregunta, duda o comentario sobre esta canción, te responderemos a la brevedad.

Las más tocadas de Pearl Jam

Toca una Canción al Azar de Pearl Jam