You Are
Pearl Jam
Acordes

Subida por cristijiimenez
Álbum: Riot Act ( 2002)



Cambiar Cifrado
Americano Latino

Cambiar Tonalidad
-1 +1

Partir Pantalla Imprimir FAQ

+A
-A
Guitar 1: CGCGCE
Guitar 2: CGCGCE

intro/chorus/interlude: Guitar 1:
------------------------------------------------------------------------------
------------------------------------------------------------------------------
----------------12------------------------------12-----5--10------------------
-------12----12--------3------8--------12----12--------5--10------------------
----12----12---------3------8-------12----12---------5----10------------------
-12----------------3------8------12----------------5------10------------------


verse:
G1:
------------------------------------------------------------------------------
------------------------------------------------------------------------------
------------------------------------------------------------------------------
-----------------12h14--12-------12-10-8----12--------------------------------
-----12----8-----12h14--12--8----12-10-8----12--------------------------------
--12----12----12--------------12---------12-----------------------------------
repeat

G2:
------------------------------------------------------------------------------
------------------------------------------------------------------------------
-0---0-0--0-0--0-0--0-3-0-0--0---0-0--0-0-0-0---------------------------------
-0---0-0--0-0--0-0--0-3-0-0--0---0-0--0-0-0-0---------------------------------
------------------------------------------------------------------------------
------------------------------------------------------------------------------

Postchorus:
----------------------------------------------------------------------0-------
------------------------------------------------------------------------0-----
--------------------------------------------------------------------0-----0---
------------------------------------------------------------------0---------0-
-----------------------------------------------------------3----5-------------
--12---12-12-12-12--12-12---10-7-3-0--12vv--10-7-3-0-5-0-3--------------------
|repeat>>>>>>>>|

------------------------------------------------------------------------------
------------------------------------------------------------------------------
---0--------------------------------------------------------------------------
-0----------------------------------------------------------------------------
-5----------------------------------------------------------------------------
------------------------------------------------------------------------------
slide back up to verse

Interlude: (pluck)
-----------------------------------------3------------------------------------
--5--3---10---7-----5--3---10--7-----3------------------10---7---7-3--10--7---
--5--3---10---7-----5--3---10--7---5---5----7-8--10--8--10---7---7-3--10--7---
------------------------------------------------------------------------------
------------------------------------------------------------------------------
------------------------------------------------------------------------------
|repeat once|

solo at end:
------------------8vv-6--8--11-13b-13b--11--8-6h8p6-8h11p8-11h13p11h13p11-----
---0vvv-5-5-0vv---------------------------------------------------------------
------------------------------------------------------------------------------
------------------------------------------------------------------------------
------------------------------------------------------------------------------
------------------------------------------------------------------------------
| repeat.. |

ACORDES PARA GUITARRA

PIANO UKELELE


COMENTARIOS

Aún no hay comentarios,

¡escribe el primero!

Escribe una pregunta, duda o comentario sobre esta canción, te responderemos a la brevedad.

Las más tocadas de Pearl Jam

Toca una Canción al Azar de Pearl Jam