Como te extraño (Acordes)

Rondalla Circulo De Amor

Subida por Nicosax

Compartir


Imprimir FAQ
+A
-A

Texto

Desplazamiento

Transportador

Color de Fondo

Archivos

-A
+A
Requinto Inicial


e/--7---3--5--7---3--5--7-----7--7--10--8---
B/--8---5--7--8---5--7--8-----8--8--12--10--

e/--12--10--8---7-7-7-7-3-5-7-7-7-7-3-5-7-7-7-7--10--8---
B/--13--12--10--8-8-8-8-5-7-8-8-8-8-5-7-8-8-8-8--12--10--

e/--12--10--8---7--
B/--13--12--10--8--


En el Intermedio es el mismo requinto.


Requinto Final Este se toca con los ultimos rasgueos

e/--12--10--8---7--
B/--13--12--10--8--


Saludos a los integrantes de la Rondalla Circulo de Amor
del Plantel 18 de COBAT, Atltzayanca,Tlaxcala, y la Rondalla
Los Bohemio de la misma localidad.

Cualquier duda mandenme un mail, y tambien si quieren cambiar
musica de Rondalla, acordes y requintos, mandeme un mail tambien
bye.


Video Clip de Como te extraño


ACORDES PARA GUITARRA

PIANO UKELELE


TOP 20: Las más tocadas de Rondalla Circulo De Amor


Acordes

Cerrar

02.25

x

65