Tres Regalos (Acordes)

Rondalla Circulo De Amor

Subida por Hexsh

Compartir


Imprimir FAQ
+A
-A

Texto

Desplazamiento

Transportador

Color de Fondo

Archivos

-A
+A
Requinto


E/-------------------------------------------------------------------------------------------
A/-------------------------------------------------------------------------------------------
D/--7--9--10---------------------------------------------------------------------------------
G/-------------------------------------------------------------------------------------------
B/-------------------------------------------------------------------------------------------
e/------------10-10-10-10---7-7-7-7--10-10-10-10--7-7-7-7--10-10-10-10--7-7-7-7--8-8-8-8-----

E/--5-5-5-5--8-8-8--5-5-5-5--8-8-8--5-5-5-5--7-7-7-7--10-10-10-10--7-7-7-7--10-10-10-10--7-7-7-7--8-8-8-10-10-10-12-12-12--
A/-------------------------------------------------------------------------------------------------------------------------
D/-------------------------------------------------------------------------------------------------------------------------
G/-------------------------------------------------------------------------------------------------------------------------
B/-------------------------------------------------------------------------------------------------------------------------
e/-------------------------------------------------------------------------------------------------------------------------


E/-------------------------------------------------------------------------------------------
A/-------------------------------------------------------------------------------------------
D/--7--9--10---------------------------------------------------------------------------------
G/-------------------------------------------------------------------------------------------
B/-------------------------------------------------------------------------------------------
e/------------10-10-10-10---7-7-7-7--10-10-10-10--7-7-7-7--10-10-10-10--7-7-7-7--8-8-8-8-----

E/--5-5-5-5--8-8-8--5-5-5-5--8-8-8--5-5-5-5--7-7-7-7--10-10-10-10--7-7-7-7--10-10-10-10--7-7-7-7--8-8-8--10--8--7-------------12--
A/-----------------------------------------------------------------------------------------------------------------10--8--10--12--
D/----------------------------------------------------------------------------------------------------------------------------12--
G/--------------------------------------------------------------------------------------------------------------------------------
B/--------------------------------------------------------------------------------------------------------------------------------
e/--------------------------------------------------------------------------------------------------------------------------------

Eso es todo, cualquier duda mandenme un mail, bye.


Video Clip de Tres Regalos


ACORDES PARA GUITARRA

PIANO UKELELE
E
A
G
B
D


TOP 20: Las más tocadas de Rondalla Circulo De Amor


Acordes

Cerrar
E
A
G
B
D

03.09

x

148