Granito de arena (Acordes)

Rondalla Circulo De Amor

Subida por jhonatan

Compartir


Imprimir FAQ
+A
-A

Texto

Desplazamiento

Transportador

Color de Fondo

Archivos

-A
+A
Requinto Inicial


e/--10------10--9-------9--7---9--7---------
B/------10----------10---------------10--8--

e/--10-----------------10--9-----------------9--7----9--7-----------
B/-----------------10--------------------10------------------10--8--
G/------------------------------------------------------------------
D/------------9----------------------7------------------------------
A/------9--7-------------------7--9---------------------------------
E/------------------------------------------------------------------

Caulquier duda comuniquense conmigo.


Video Clip de Granito de arena


ACORDES PARA GUITARRA

PIANO UKELELE
B
G
A
E


TOP 20: Las más tocadas de Rondalla Circulo De Amor


Acordes

Cerrar
B
G
A
E

18.09

x

86