Historia de un amor (Acordes)

Rondalla Circulo De Amor

Subida por tirro

Compartir


Imprimir FAQ
+A
-A

Texto

Desplazamiento

Transportador

Color de Fondo

Archivos

-A
+A
Requinto Intermedio


e/--0--0--12--12--12--10--13----------------10--
B/----------------------------12----12--13------

e/--0--0--10--10--10------12-------------------
B/--------------------13------13---10--12--13--

e/--0--0--8--8--8/7--7--10--7---------7--7--7--5--8--5--
B/-----------------------------8--10--------------------

e/--------5--4--8--7--5--
B/--6--8-----------------

El Requinto Final es el mismo, dudas, mandenme un mail.

Si quieren cambiar mas acordes, requinto o canciones de
Rondallas, mandenma tambien un mail, bye.


Video Clip de Historia de un amor


ACORDES PARA GUITARRA

PIANO UKELELE


TOP 20: Las más tocadas de Rondalla Circulo De Amor


Acordes

Cerrar

03.37

x

57