Nuestro Aniversario (Acordes)

Rondalla Circulo De Amor

Subida por Andresg106

Compartir


Imprimir FAQ
+A
-A

Texto

Desplazamiento

Transportador

Color de Fondo

Archivos

-A
+A
Requinto Inicial



e/--12--10--12--10--12--10----10--8---10--8---10--8---
B/--13--12--13--12--13--12----12--10--11--10--11--10--

e/--10--8--7--5--3--3--5--7---10--8---10--8---10--8---
B/--8---7--5--3--1--5--7--8---11--10--11--10--11--10--

e/--10--8----7---5-5-5-5-5---5--7--8--10----5--7--9---10--
B/--12--10---8---7-7-7-7-7---7--8--10-11----7--9--10--12--


El Requinto Intermedio es el mismo que el Inicial


Requinto Final


e/--5--7--8---10----5--7---9---10--
B/--7--8--10--11----7--9---10--12--


Cualquier duda o comentario, mandenme un mail, la direccion
aparece arriba, bye.


Video Clip de Nuestro Aniversario


ACORDES PARA GUITARRA

PIANO UKELELE


TOP 20: Las más tocadas de Rondalla Circulo De Amor


Acordes

Cerrar

19.19

x

60