Buscando el perdón (Acordes)

Saratoga

Subida por takubayo

Compartir


Imprimir FAQ
+A
-A

Texto

Desplazamiento

Transportador

Color de Fondo

Archivos

-A
+A
Es mi primera transcripción XD... Ya que nadie la subia me dedique a
transcribirla
Púes prueben haber q tal!

e---------------
B---------------
G---------------
D---------------
A-4—--2—--4~~---
E-2—--0—--2~~---

e------------------------------19----------21~-------
B-/22~--19-21-22~---19-21-22~-------21--22------------
G----------------------------------------------------
D----------------------------------------------------
A----------------------------------------------------
E----------------------------------------------------

e---------------19--------------------------------------
B-18-19-21-22~------21--22---19~---18~---19~~~~~~~~~~---
G-------------------------------------------------------
D-------------------------------------------------------
A-------------------------------------------------------
E-------------------------------------------------------

e------------------------------19----------21~-------
B-22~--19-21-22~---19-21-22~-------21--22------------
G----------------------------------------------------
D----------------------------------------------------
A----------------------------------------------------
E----------------------------------------------------

e---------------19-----------21~---19~---22~~~~~~~------
B-18-19-21-22~------21--22------------------------------
G-------------------------------------------------------
D-------------------------------------------------------
A-------------------------------------------------------
E-------------------------------------------------------

e-------------------------------------------------------------
B-------------------------------------------------------------
G-------------------------------------------------------------
D-------------------------------------------------------------
A-2~—-------2----2----2----2----2----2----2----2----2----2----
E-0~—----00-0-00-0-00-0-00-0-00-0-00-0-00-0-00-0-00-0-00-0-00-
PM       ** * ** * ** * ** * ** * ** * ** * ** * ** * ** * **
Nadie anda cerca puedo actuar hoy llamaré su atención
e------------------------------------------------
B------------------------------------------------
G------------------------------------------------
D---------7-7-7-7-7--5-5-5-5-5--9-9-9-9-9--------
A-2~—------------------------------------------4-
E-0~—------------------------------------------2-
PM        *********  *********  *********      *
Un tren se acerca en la oscuridad...y él lo vio
e------------------------------------------------------------
B------------------------------------------------------------
G------------------------------------------------------------
D------------------------------------------------------------
A-2—---------------------------------------------------------
E-0—--00-0-00-0-00-0-00-0-00-0-22-2-22-2-22-2-22-2-22-2-22---
PM    ** * ** * ** * ** * ** * ** * ** * ** * ** * ** * **
vías resuenan, ruido infernal se oye el crujido de un dios
e--------------------
B--------------------
G--------------------
D--------------------
A-2~~~~~~~~~~~~—-----
E-0~~~~~~~~~~~~—-----
y al despertar leyó el titular su voluntad se cumplió
e----------------------------------------------------------
B----------------------------------------------------------
G----------------------------------------------------------
D----------------------------------------------------------
A------------------------------4----4----4-----4----4----4-
E-00-0-00-0-00-0-00-0-00-0--22-2-22-2-22-2--22-2-22-2-22-2-
PM** * ** * ** * ** * ** *  ** * ** * ** *  ** * ** * ** *
¿Ves lo que hace el odio?

e-------------------------------------------------------
B-------------------------------------------------------
G-------------------------------------------------------
D-------------------------------------------------------
A-----------------------------2~~~~—---------4~~~~------
E-00-0-00-0-00-0-00-0-00-0----0~~~~—---------2~~~~------
PM** * ** * ** * ** * ** *
Desesperación
e----------------------------------------------------------
B----------------------------------------------------------
G----------------------------------------------------------
D----------------------------------------------------------
A-7-7-7-7-7--3-3-3-3-3--5-5-5-5-5--3-3-3-3-3--5-5-5-5-5----
E----------------------------------------------------------
PM* * * * *  * * * * *  * * * * *  * * * * *  * * * * *
La sensación de malestar que le acompaña al caminar
e----------------------------------------------------------
B----------------------------------------------------------
G----------------------------------------------------------
D----------------------------------------------------------
A------------------------------4----4----4-----4----4----4-
E-00-0-00-0-00-0-00-0-00-0--22-2-22-2-22-2--22-2-22-2-22-2-
PM** * ** * ** * ** * ** *  ** * ** * ** *  ** * ** * ** *
recuerdos que le incitan a matar

e--------------------------------------------------------------------
B--------------------------------------------------------------------
G--------------------------------------------------------------------
D--------------------------------------------------------------------
A-7-7-7-7-7--3-3-3-3-3--5-5-5-5-5--3-3-3-3-3-3--5-5-5-5-5--9-9-9-9-9-
E--------------------------------------------------------------------
PM* * * * *  * * * * *  * * * * *  * * * * * *  * * * * *  * * * * *
no se resignó, cae la locura en su interior
fiel agonía con la que creció
e---------------------------------
B---------------------------------
G---------------------------------
D---------------------------------
A-----4----4----4-----4----4----4-
E--22-2-22-2-22-2--22-2-22-2-22-2-
PM ** * ** * ** *  ** * ** * ** *

e-------------------------------------------------------------
B-------------------------------------------------------------
G-------------------------------------------------------------
D-------------------------------------------------------------
A-2~—-------2----2----2----2----2----2----2----2----2----2----
E-0~—----00-0-00-0-00-0-00-0-00-0-00-0-00-0-00-0-00-0-00-0-00-
PM       ** * ** * ** * ** * ** * ** * ** * ** * ** * ** * **
Fue un triste día, esa ansiedad le hizo perder la razón
e------------------------------------------------
B------------------------------------------------
G------------------------------------------------
D---------7-7-7-7-7--5-5-5-5-5--9-9-9-9-9--------
A-2~—------------------------------------------4-
E-0~—------------------------------------------2-
PM        *********  *********  *********      *
tiro certero, dio sin control y él calló.
e------------------------------------------------------------
B------------------------------------------------------------
G------------------------------------------------------------
D------------------------------------------------------------
A-2—---------------------------------------------------------
E-0—--00-0-00-0-00-0-00-0-00-0-22-2-22-2-22-2-22-2-22-2-22---
PM    ** * ** * ** * ** * ** * ** * ** * ** * ** * ** * **
...muy buenas tardes, vengo a contar como ha acabado el terror
e--------------------
B--------------------
G--------------------
D--------------------
A-2~~~~~~~~~~~~—-----
E-0~~~~~~~~~~~~—-----
no se muy bien lo que sucedió ¡tan solo recuerdo dolor!
e----------------------------------------------------------
B----------------------------------------------------------
G----------------------------------------------------------
D----------------------------------------------------------
A------------------------------4----4----4-----4----4----4-
E-00-0-00-0-00-0-00-0-00-0--22-2-22-2-22-2--22-2-22-2-22-2-
PM** * ** * ** * ** * ** *  ** * ** * ** *  ** * ** * ** *
Y al cesar la angustia
e-------------------------------------------------------
B-------------------------------------------------------
G-------------------------------------------------------
D-------------------------------------------------------
A-----------------------------2~~~~—---------4~~~~------
E-00-0-00-0-00-0-00-0-00-0----0~~~~—---------2~~~~------
PM** * ** * ** * ** * ** *
 el juez lo condenó
e----------------------------------------------------------
B----------------------------------------------------------
G----------------------------------------------------------
D----------------------------------------------------------
A-7-7-7-7-7--3-3-3-3-3--5-5-5-5-5--3-3-3-3-3--5-5-5-5-5----
E----------------------------------------------------------
PM* * * * *  * * * * *  * * * * *  * * * * *  * * * * *
No lo negó, lo confesó dio fin a aquel maltratador
e----------------------------------------------------------
B----------------------------------------------------------
G----------------------------------------------------------
D----------------------------------------------------------
A------------------------------4----4----4-----4----4----4-
E-00-0-00-0-00-0-00-0-00-0--22-2-22-2-22-2--22-2-22-2-22-2-
PM** * ** * ** * ** * ** *  ** * ** * ** *  ** * ** * ** *
y ahora maldice el arma q empuñó.

e--------------------------------------------------------------------
B--------------------------------------------------------------------
G--------------------------------------------------------------------
D--------------------------------------------------------------------
A-7-7-7-7-7--3-3-3-3-3--5-5-5-5-5--3-3-3-3-3-3--5-5-5-5-5--9-9-9-9-9-
E--------------------------------------------------------------------
PM* * * * *  * * * * *  * * * * *  * * * * * *  * * * * *  * * * * *
No, no lo negó, no sabe como lo mató hoy se lamenta y pide tu perdón.
e---------------------------------
B---------------------------------
G---------------------------------
D---------------------------------
A-----4----4----4-----4----4----4-
E--22-2-22-2-22-2--22-2-22-2-22-2-........
PM ** * ** * ** *  ** * ** * ** *.............
..................................................
......................................................
El solo se los debo....

HERRAMIENTAS ACORDESWEB:


LETRA DE LA CANCIÓN:

Ver la letra sola (sin acordes)

OTRAS VERSIONES DE LA MISMA CANCIÓN:

Ver. 2

DESCARGAR PDF / IMPRIMIR CANCIÓN



ACORDES PARA GUITARRA

PIANO UKELELE


TOP 20: Las más tocadas de Saratoga


Toca una Canción al Azar de Saratoga

Acordes

Cerrar

09.23

x

73