Quiza el sol no saldrá (Acordes)

Saratoga

Subida por Norge

Compartir


Imprimir FAQ
+A
-A

Texto

Desplazamiento

Transportador

Color de Fondo

Archivos

-A
+A
Es mi primera tabulacion, talvez hayan errores.
Hecho por Oscar Higuera

RIFF
Gb-------------------------------------------------------------------
Db-------------------------------------------------------------------
Ab-------------------------------------------------------------------
Eb–0-0-2-0-3---0-0--0-0-0-0---0-0-2-0-3---0-0-0-0-0-0----0-0—0-0-0-0
(se repite algunas veces)


VERSOS
Ab-2-2-2-2-2-2-2-2-2-2-2-2-2-2-2-2……
Eb--------------------------------------
(Son muchas veces en tiempo de corchea…
 pero realmente siempre hace esto
y nunca cambia hasta el precoro)


PRECORO
Ab-----545-----5-4----545-----542--------545------5-4----545----542-2
Eb—2-2------2-2----2-2-----2-2---52--2-2-------2-2----2-2-----2-2--5-

CORO

Ab-22222-2222222--------------55555-5555555-------------
Eb---------------22222-2222222-------------55555-5555555
(la primera vuelta)

Ab---22222-2222222---------------55555-5555555----------------------------
Eb-----------------22222-2222222---------------22222-2222222-22222-2222222
(la segunda vuelta)

PUNTEO DE JERO
Ab--22222222222222222222222222222222222-5555555555555555555555555555555
Eb---------------------------------------------------------------------

Ab----------------------------------------545-----5-4------545----542--
Eb—0000000000000000000-222222222222222-2-2-----2-2-----2-2-----2-2---52

Ab------545-----5-4------545-----542-2
Eb---2-2-----2-2------2-2----2-2----5-

ORDEN
Riff x2
Verso
Precoro
Verso
Precoro
Riff x1
Verso
Precoro
Coro
Riff x2
Solo Jero
Precoro
Coro x2
Riff x2


Video Clip de Quiza el sol no saldrá


ACORDES PARA GUITARRA

PIANO UKELELE


TOP 20: Las más tocadas de Saratoga


Toca una Canción al Azar de Saratoga

Acordes

Cerrar

07.48

x

74