Las puertas del cielo (Acordes)

Saratoga

Subida por Jessi

Compartir


Cambiar Cifrado
Americano Latino

Cambiar Tonalidad
-1 +1
Imprimir FAQ
+A
-A

Texto

Desplazamiento

Transportador

Color de Fondo

Archivos

TONALIDAD, TAMAÑO, CIFRADO, SCROL.

Nos renovamos: Ahora puedes cambiar TODO haciendo clic en ICONO de la Guitarra () que aparece en la parte inferior de esta página.


LETRA CON ACORDES

Intro (x2)


eb|---------------------------------|---------------------------------|
Bb|---------------------------------|---------------------------------|
Gb|---------------------------------|---------------------------------|
Db|---------------------------------|---------------------------------|
Ab|-----------------3---2-----------|-----------------5--<4>----------|
Eb|-0---2-2-3---0-----------3---2---|-0---2-2-3---0-------------------|
    .   . . .   .   .   .   .   .     .   . . .   .   .             p.m.

eb|---------------------------------|---------------------------------|
Bb|---------------------------------|---------------------------------|
Gb|---------------------------------|---------------------------------|
Db|---------------------------------|---------------------------------|
Ab|-----------------3--<2>----------|-----------------3---2-----------|
Eb|-0---2-2-3---0-------------------|-0---2-2-3---0-----------3---2---|
    .   . . .   .   .                 .   . . .   .   .   .   .   . p.m.

Versos (x2)
                                                                       x2
eb||---------------------------------|---------------------------------||
Bb||---------------------------------|---------------------------------||
Gb|:---------------------------------|---------------------------------:|
Db|:---------------------------------|---------------------------------:|
Ab||---------2-------3-----------2---|-----3-----------2-------3--p2---||
Eb||-0---0-0-0---0---0---0---0---0---|-0---0---0---0---0---0---0---0---||
     .   .   .   .   .   .   .   .     .   .   .   .   .   .   .   . p.m.

eb|---------------------------------|---------------------------------|
Bb|---------------------------------|---------------------------------|
Gb|---------------------------------|---------------------------------|
Db|-5-----5-5---4~------------------|-5-----5-5---4-------------------|
Ab|-3---3-3-3---3~------------------|-3---3-3-3---3~------3-----------|
Eb|---------------------------------|---------------------------------|


eb|---------------------------------|---------------------------------|
Bb|---------------------------------|---------------------------------|
Gb|---------------------------------|---------------------------------|
Db|-5-----5-5---4-------5~----------|-7-----5-----4--h5---5~----------|
Ab|-3---3-3-3---3~------3-----------|-------3-----3-------3~----------|
Eb|---------------------------------|---------------------------------|

Fill

eb|---------------------------------|
Bb|---------------------------------|
Gb|---------------------------------|
Db|-2-0---------------------2.------|
Ab|-----3-2-------------------------|
Eb|---------3---0.--0---0.----------|

Coro (x2)

eb|---------------------------------|---------------------------------|
Bb|---------------------------------|---------------------------------|
Gb|-5-------------------------------|---------------------------------|
Db|-5-------------------------------|-5-------------------------------|
Ab|-3-------------------------------|-5-------------------------------|
Eb|---------------------------------|-3-------------------------------|

eb|---------------------------------|---------------------------------|
Bb|---------------------------------|---------------------------------|
Gb|-7-------------------------------|-9-------------------------------|
Db|-7-------------------------------|-9-------------------------------|
Ab|-5-------------------------------|-7---------------9------10------|
Eb|---------------------------------|---------------------------------|

eb|---------------------------------|---------------------------------|
Bb|---------------------------------|---------------------------------|
Gb|-5-------------------------------|-4-------------------------------|
Db|-5-------------------------------|-4-------------------------------|
Ab|-3-------------------------------|-2-------------------------------|
Eb|---------------------------------|---------------------------------|

Riff

eb||---------------------------------|---------------------------------|
Bb||---------------------------------|---------------------------------|
Gb|:---------------------------------|---------------------------------|
Db|:---------------------------------|---------------------------------|
Ab||---------------------------------|-------------------------2-------|
Eb||-0---2---3---0---2---3---5-------|-2---3---5---2---3---5-----------|
     .   .   .   .   .   .             .   .   .   .   .   .         p.m.

eb|---------------------------------|---------------------------------||
Bb|---------------------------------|---------------------------------||
Gb|---------------------------------|---------------------------------:|
Db|---------------------------------|---------------------------------:|
Ab|---------------------------------|---------2-----------2---3-------||
Eb|-0---2---3---0---2---3---5---2---|-3---5-------3---5---------------||
    .   .   .   .   .   .   .   .     .   .   .   .   .   .         p.m.

eb|---------------------------------|---------------------------------|
Bb|---------------------------------|---------------------------------|
Gb|---------------------------------|---------------------------------|
Db|---------------------------------|-----------------2---------------|
Ab|---------2-------2-------2-------|---------2-------2---------------|
Eb|-0-0-0-0-0-------0-------0-------|-0-0-0-0-0-------0---------------|
    . . . . .       .       .         . . . . .       .

Interludio (x2)
                                     x2
eb||---------------------------------||
Bb||---------------------------------||
Gb|:-4---4---4---5---5---5---5---5---:|
Db|:-2~------------------------------:|
Ab||---------------------------------||
Eb||---------------------------------||

                                     x2
eb||---------------------------------||
Bb||---------------------------------||
Gb|:---------------------------------:|
Db|:-5---5---5---4---4---4---4---4---:|
Ab||-3~------------------------------||
Eb||---------------------------------||

Base del Solo (x2)
                                     x4
eb||---------------------------------||
Bb||---------------------------------||
Gb|:---------------------------------:|
Db|:---------------------------------:|
Ab||---------------------------------||
Eb||-0-0-0-0-0-0-0-0-0-0-0-0-0-0-0-0-||
     . . . . . . . . . . . . . . . . p.m.

                                     x4
eb||---------------------------------||
Bb||---------------------------------||
Gb|:---------------------------------:|
Db|:---------------------------------:|
Ab||---------------------------------||
Eb||-2-2-2-2-2-2-2-2-2-2-2-2-2-2-2-2-||
     . . . . . . . . . . . . . . . . p.m.

Fill 2

eb|-12-----/14-----/15-----/17------|-/19-----
Bb|---------------------------------|---------
Gb|---------------------------------|---------
Db|---------------------------------|---------
Ab|---------------------------------|---------
Eb|---------------------------------|---------

Allí está toda la canción, menos el solo, que no puedo
sacarlo, pero todo lo demas está bien. Suerte con el tema!


Video Clip de Las puertas del cielo


ACORDES PARA GUITARRA

PIANO UKELELE


TOP 20: Las más tocadas de Saratoga


Toca una Canción al Azar de Saratoga

Acordes

Cerrar

11.55

x

74