Corazón Herido (Acordes)

Saratoga

Subida por EUDY

Compartir


Cambiar Cifrado
Americano Latino

Cambiar Tonalidad
-1 +1
Imprimir FAQ
+A
-A

Texto

Desplazamiento

Transportador

Color de Fondo

Archivos

TONALIDAD, TAMAÑO, CIFRADO, SCROL.

Nos renovamos: Ahora puedes cambiar TODO haciendo clic en ICONO de la Guitarra () que aparece en la parte inferior de esta página.


LETRA CON ACORDES

      S S S S S S S S  S S S S S S S  S
|E------------------------------------|
|B------------------------------------|
|G------------------------------------|
|D------------------------------------|
|A------9-----7-----10-----9-----7s-9-|
|E--7-7---7-7---7-7----7-7---7-7------|


  S S S S S S S S  S S S S S S S  S
------------------------------------|
------------------------------------|
------------------------------------|
------------------------------------|
------9-----7-----10-----9-----7s-9-|
--7-7---7-7---7-7----7-7---7-7------|


  S S S S S S S S S S S S S S S  S
-----------------------------------|
-----------------------------------|
-----------------------------------|
-----------------------------------|
--0-0-5-0-0-4-0-0-7-0-0-5-0-0-4s-5-|
-----------------------------------|


  S S S S S S S S S S S S S S S  S    Q
-----------------------------------|-------|
-----------------------------------|-------|
-----------------------------------|-------|
-----------------------------------|-------|
--0-0-5-0-0-4-0-0-7-0-0-5-0-0-4s-5-|-------|
-----------------------------------|-------|


  S S S S S S S S  S S S S S S S  S
------------------------------------|
------------------------------------|
------------------------------------|
------------------------------------|
------9-----7-----10-----9-----7s-9-|
--7-7---7-7---7-7----7-7---7-7------|


  S S S S S S S S  S S S S S S S  S
------------------------------------|
------------------------------------|
------------------------------------|
------------------------------------|
------9-----7-----10-----9-----7s-9-|
--7-7---7-7---7-7----7-7---7-7------|


  S S S S S S S S S S S S S S S  S
-----------------------------------|
-----------------------------------|
-----------------------------------|
-----------------------------------|
--0-0-5-0-0-4-0-0-7-0-0-5-0-0-4s-5-|
-----------------------------------|


  S S S S S S S S S S S S S S S  S
-----------------------------------|
-----------------------------------|
-----------------------------------|
-----------------------------------|
--0-0-5-0-0-4-0-0-7-0-0-5-0-0-4s-5-|
-----------------------------------|


  S S S S S S S S  S S S S S S S  S
------------------------------------|
------------------------------------|
------------------------------------|
------------------------------------|
------9-----7-----10-----9-----7s-9-|
--7-7---7-7---7-7----7-7---7-7------|


  S S S S S S S S  S S S S S S S  S
------------------------------------|
------------------------------------|
------------------------------------|
------------------------------------|
------9-----7-----10-----9-----7s-9-|
--7-7---7-7---7-7----7-7---7-7------|


  S S S S S S S S S S S S S S S  S
-----------------------------------|
-----------------------------------|
-----------------------------------|
-----------------------------------|
--0-0-5-0-0-4-0-0-7-0-0-5-0-0-4s-5-|
-----------------------------------|


  S S S S S S S S S S S S S S S  S
-----------------------------------|
-----------------------------------|
-----------------------------------|
-----------------------------------|
--0-0-5-0-0-4-0-0-7-0-0-5-0-0-4s-5-|
-----------------------------------|

VERSO 1
     W                    W
|----------------------|-------------------|
|----------------------|-------------------|
|---(4)----------------|--L----------------|
|----4-----------------|--L----------------|
|----2-----------------|--L----------------|
|----------------------|-------------------|


  W                   W
-------------------|-------------------|
-------------------|-------------------|
--L----------------|--L----------------|
--L----------------|--L----------------|
--L----------------|--L----------------|
-------------------|-------------------|


   W
---------------------|
---------------------|
---7-----------------|
---7-----------------|
---5-----------------|
---------------------|


  E  E  E  E  E  E  E  E
---------------------------||
---------------------------||
--------------------------*||
--4-----4-----4-----4-----*||
--4-----4-----4-----4------||
--2-----2-----2-----2------||


  S S S S S S S S S S S S S S S S
----------------------------------|
----------------------------------|
----------------------------------|
----------------------------------|
----------------------------------|
--3-3-3-3-3-3-3-3-3-3-3-3-3-3-3-3-|


  S S S S S S S S S S S S S S S S
----------------------------------|
----------------------------------|
----------------------------------|
----------------------------------|
----------------------------------|
--5-5-5-5-5-5-5-5-5-5-5-5-5-5-5-5-|


  S S S S S S S S S S S S S S S S
----------------------------------|
----------------------------------|
----------------------------------|
----------------------------------|
----------------------------------|
--3-3-3-3-3-3-3-3-3-3-3-3-3-3-3-3-|


  S S S S S S S S S S S S S S S S
----------------------------------|
----------------------------------|
----------------------------------|
----------------------------------|
----------------------------------|
--5-5-5-5-5-5-5-5-5-5-5-5-5-5-5-5-|


  S S S S S S S S S S S S S S S S
----------------------------------|
----------------------------------|
----------------------------------|
----------------------------------|
----------------------------------|
--2-2-2-2-2-2-2-2-2-2-2-2-2-2-2-2-|

                          CORO
  S H        Q    E  S    W
-----------------------|-------------------|
-----------------------|-------------------|
-----------------------|--4----------------|
-----------------------|--4----------------|
--4--------------------|--2----------------|
--2--------------------|-------------------|


  W                   W
-------------------|-------------------|
-------------------|-------------------|
-------------------|--7----------------|
--5----------------|--7----------------|
--5----------------|--5----------------|
--3----------------|-------------------|


  W                   W
-------------------|-------------------|
-------------------|-------------------|
-------------------|--4----------------|
--7----------------|--4----------------|
--7----------------|--2----------------|
--5----------------|-------------------|


  W                   W
-------------------|-------------------|
-------------------|-------------------|
-------------------|-------------------|
--5----------------|--4----------------|
--5----------------|--4----------------|
--3----------------|--2----------------|


  W                   H.           Q
-------------------|--------------------|
-------------------|--------------------|
-------------------|--------------------|
--7----------------|--5-----------------|
--7----------------|--5-----------------|
--5----------------|--3-----------------|

VERSO 2
     W                    W
|----------------------|-------------------|
|----------------------|-------------------|
|---(4)----------------|--L----------------|
|----4-----------------|--L----------------|
|----2-----------------|--L----------------|
|----------------------|-------------------|


  W                   W
-------------------|-------------------|
-------------------|-------------------|
--L----------------|--L----------------|
--L----------------|--L----------------|
--L----------------|--L----------------|
-------------------|-------------------|


  W
-------------------|
-------------------|
--7----------------|
--7----------------|
--5----------------|
-------------------|


  E  E  E  E  E  E  E  E
---------------------------||
---------------------------||
--------------------------*||
--4-----4-----4-----4-----*||
--4-----4-----4-----4------||
--2-----2-----2-----2------||


  S S S S S S S S S S S S S S S S
----------------------------------|
----------------------------------|
----------------------------------|
----------------------------------|
----------------------------------|
--3-3-3-3-3-3-3-3-3-3-3-3-3-3-3-3-|


  S S S S S S S S S S S S S S S S
----------------------------------|
----------------------------------|
----------------------------------|
----------------------------------|
----------------------------------|
--5-5-5-5-5-5-5-5-5-5-5-5-5-5-5-5-|


  S S S S S S S S S S S S S S S S
----------------------------------|
----------------------------------|
----------------------------------|
----------------------------------|
----------------------------------|
--3-3-3-3-3-3-3-3-3-3-3-3-3-3-3-3-|


  S S S S S S S S S S S S S S S S
----------------------------------|
----------------------------------|
----------------------------------|
----------------------------------|
----------------------------------|
--5-5-5-5-5-5-5-5-5-5-5-5-5-5-5-5-|


  S S S S S S S S S S S S S S S S
----------------------------------|
----------------------------------|
----------------------------------|
----------------------------------|
----------------------------------|
--2-2-2-2-2-2-2-2-2-2-2-2-2-2-2-2-|

                          CORO
  S H        Q    E  S    W
-----------------------|-------------------|
-----------------------|-------------------|
-----------------------|--4----------------|
-----------------------|--4----------------|
--4--------------------|--2----------------|
--2--------------------|-------------------|


  W                   W
-------------------|-------------------|
-------------------|-------------------|
-------------------|--7----------------|
--5----------------|--7----------------|
--5----------------|--5----------------|
--3----------------|-------------------|


  W                   W
-------------------|-------------------|
-------------------|-------------------|
-------------------|--4----------------|
--7----------------|--4----------------|
--7----------------|--2----------------|
--5----------------|-------------------|


  W                   W
-------------------|-------------------|
-------------------|-------------------|
-------------------|-------------------|
--5----------------|--4----------------|
--5----------------|--4----------------|
--3----------------|--2----------------|


  W                   W
-------------------|-------------------|
-------------------|-------------------|
-------------------|-------------------|
--7----------------|--5----------------|
--7----------------|--5----------------|
--5----------------|--3----------------|

SOLO
    S S S S S S S S S S S S  S S S S
|------------------------------------|
|------------------------------------|
|------------------------------------|
|------------------------------------|
|-----------9-------7-------10-------|
|---7-7-7-7---7-7-7---7-7-7----7-7-7-|


  S S S S S S S S S S S S S S S S  4x
-----------------------------------||
-----------------------------------||
----------------------------------*||
----------------------------------*||
--9--------------------------------||
----7-7-7-7-7-7-7-7-7-7-7-7-7-7-7--||


   S S S S S S S S S S S S S S S S
-----------------------------------|
-----------------------------------|
-----------------------------------|
-----------------------------------|
-----------7-------5-------9-------|
---5-5-5-5---5-5-5---5-5-5---5-5-5-|


  S S S S S S S S S S S S S S S S
-----------------------------------||
-----------------------------------||
----------------------------------*||
----------------------------------*||
--7--------------------------------||
----5-5-5-5-5-5-5-5-5-5-5-5-5-5-5--||


  S S S S S S S S S S S S S S S S
----------------------------------|
----------------------------------|
----------------------------------|
----------------------------------|
----------5-------4-------7-------|
--3-3-3-3---3-3-3---3-3-3---3-3-3-|


  S S S S S S S S S S S S S S S S
----------------------------------|
----------------------------------|
----------------------------------|
----------------------------------|
--5-------------------------------|
----3-3-3-3-3-3-3-3-3-3-3-3-3-3-3-|


  S S S S S S S S S S S S S S S S
----------------------------------|
----------------------------------|
----------------------------------|
----------------------------------|
----------4-------2-------5-------|
--2-2-2-2---2-2-2---2-2-2---2-2-2-|

                          CORO
  S H        Q    E  S    W
-----------------------|-------------------|
-----------------------|-------------------|
-----------------------|--4----------------|
-----------------------|--4----------------|
--4--------------------|--2----------------|
--2--------------------|-------------------|


  W                   W
-------------------|-------------------|
-------------------|-------------------|
-------------------|--7----------------|
--5----------------|--7----------------|
--5----------------|--5----------------|
--3----------------|-------------------|


  W                   W
-------------------|-------------------|
-------------------|-------------------|
-------------------|--4----------------|
--7----------------|--4----------------|
--7----------------|--2----------------|
--5----------------|-------------------|


  W                   W
-------------------|-------------------|
-------------------|-------------------|
-------------------|-------------------|
--5----------------|--4----------------|
--5----------------|--4----------------|
--3----------------|--2----------------|


  W                   W
-------------------|-------------------|
-------------------|-------------------|
-------------------|-------------------|
--7----------------|--5----------------|
--7----------------|--5----------------|
--5----------------|--3----------------|


  W                   W
-------------------|-------------------|
-------------------|-------------------|
--4----------------|-------------------|
--4----------------|--5----------------|
--2----------------|--5----------------|
-------------------|--3----------------|


  W                   W
-------------------|-------------------|
-------------------|-------------------|
--7----------------|-------------------|
--7----------------|--7----------------|
--5----------------|--7----------------|
-------------------|--5----------------|


  W                   W
-------------------|-------------------|
-------------------|-------------------|
--4----------------|-------------------|
--4----------------|--5----------------|
--2----------------|--5----------------|
-------------------|--3----------------|


  W                   W
-------------------|-------------------|
-------------------|-------------------|
-------------------|-------------------|
--4----------------|--7----------------|
--4----------------|--7----------------|
--2----------------|--5----------------|


  W
-------------------|
-------------------|
-------------------|
--5----------------|
--5----------------|
--3----------------|


  S S S S S S S S  S S S S S S S  S
------------------------------------|
------------------------------------|
------------------------------------|
------------------------------------|
------9-----7-----10-----9-----7s-9-|
--7-7---7-7---7-7----7-7---7-7------|


  S S S S S S S S  S S S S S S S  S
------------------------------------|
------------------------------------|
------------------------------------|
------------------------------------|
------9-----7-----10-----9-----7s-9-|
--7-7---7-7---7-7----7-7---7-7------|


  S S S S S S S S S S S S S S S  S
-----------------------------------|
-----------------------------------|
-----------------------------------|
-----------------------------------|
--0-0-5-0-0-4-0-0-7-0-0-5-0-0-4s-5-|
-----------------------------------|


  S S S S S S S S S S S S S S S  S
-----------------------------------|
-----------------------------------|
-----------------------------------|
-----------------------------------|
--0-0-5-0-0-4-0-0-7-0-0-5-0-0-4s-5-|
-----------------------------------|


  S S S S S S S S  S S S S S S S  S
------------------------------------|
------------------------------------|
------------------------------------|
------------------------------------|
------9-----7-----10-----9-----7s-9-|
--7-7---7-7---7-7----7-7---7-7------|


  S S S S S S S S  S S S S S S S  S
------------------------------------|
------------------------------------|
------------------------------------|
------------------------------------|
------9-----7-----10-----9-----7s-9-|
--7-7---7-7---7-7----7-7---7-7------|


  S S S S S S S S S S S S S S S  S
-----------------------------------|
-----------------------------------|
-----------------------------------|
-----------------------------------|
--0-0-5-0-0-4-0-0-7-0-0-5-0-0-4s-5-|
-----------------------------------|


  S S S S S S S S S S S S S S S  S
-----------------------------------||
-----------------------------------||
-----------------------------------||
-----------------------------------||
--0-0-5-0-0-4-0-0-7-0-0-5-0-0-4s-5-||
-----------------------------------||




Duration Legend
---------------
W - whole
H - half
Q - quarter
E - 8th
S - 16th
T - 32nd
X - 64th
. - note dotted
|-n-|  - n-tuplets


Tablature Legend
----------------
L - tied note
x - dead note
g - grace note
(n) - ghost note
] - accentuded note
NH - natural harmonic
AH - artificial harmonic
TH - tapped harmonic
SH - semi harmonic
PH - pitch harmonic
h - hammer on
p - pull off
b - bend
br - bendRelease
pb - preBend
pbr - preBendRelease
brb - bendReleaseBend
n/ - tremolo bar dip
n - tremolo bar dive
-/n - tremolo bar Release up
/n - tremolo bar inverted dip
/n - tremolo bar return
-n - tremolo bar Release down
S - shift slide
s - legato slide
/ -  slide into from below or out of upwards
 -  slide into from above or out of downwards
~ - vibrato
W - wide vibrato
tr - trill
TP - tremolo picking
T - tapping
S - slap


Video Clip de Corazón Herido


ACORDES PARA GUITARRA

PIANO UKELELE
E


TOP 20: Las más tocadas de Saratoga


Toca una Canción al Azar de Saratoga

Acordes

Cerrar
E

06.49

x

91