Deja Vu (Acordes)

Saratoga

Subida por sofia

Compartir


Cambiar Cifrado
Americano Latino

Cambiar Tonalidad
-1 +1
Imprimir FAQ
+A
-A

Texto

Desplazamiento

Transportador

Color de Fondo

Archivos

TONALIDAD, TAMAÑO, CIFRADO, SCROL.

Nos renovamos: Ahora puedes cambiar TODO haciendo clic en ICONO de la Guitarra () que aparece en la parte inferior de esta página.


LETRA CON ACORDES

NOTA:

Espero y te ayude en algo esta tab.
Si necesitas una tab en especial, escríbeme o visita...

http://www.myspace.com/alejandrolauyola

- Revisa la afinación de esta canción en especial
- Pon atención a las instrucciones que están al final
- CALIFICA SOLO SI LEÍSTE "EL MANUAL"-

              W                   W
F#||-------|-------------------|-------------------|
C#||-------|--4----------------|--4----------------|
G#||-------|-------------------|-------------------|
D#||-------|-------------------|-------------------|


  W                   W                   W
-------------------|-------------------|-------------------|
--2----------------|--2----------------|--4----------------|
-------------------|-------------------|-------------------|
-------------------|-------------------|-------------------|


  W                   W                   W
-------------------|-------------------|-------------------|
--4----------------|--2----------------|--2----------------|
-------------------|-------------------|-------------------|
-------------------|-------------------|-------------------|


  S S S S S S S S S S S S S S S S    S S S S S S S S S S S S S S S S
----------------------------------|----------------------------------|
--4-4-4-4-4-4-4-4-4-4-4-4-4-4-4-4-|--4-4-4-4-4-4-4-4-4-4-4-4-4-4-4-4-|
----------------------------------|----------------------------------|
----------------------------------|----------------------------------|


  S S S S S S S S S S S S S S S S    S S S S S S S S S S S S S S S S
----------------------------------|----------------------------------|
--2-2-2-2-2-2-2-2-2-2-2-2-2-2-2-2-|--2-2-2-2-2-2-2-2-2-2-2-2-2-2-2-2-|
----------------------------------|----------------------------------|
----------------------------------|----------------------------------|


  S S S S S S S S S S S S S S S S    S S S S S S S S S S S S S S S S
----------------------------------|----------------------------------|
--4-4-4-4-4-4-4-4-4-4-4-4-4-4-4-4-|--4-4-4-4-4-4-4-4-4-4-4-4-4-4-4-4-|
----------------------------------|----------------------------------|
----------------------------------|----------------------------------|


  S S S S S S S S S S S S S S S S    S S S S S S S S S S S S S S S S
----------------------------------|----------------------------------|
--2-2-2-2-2-2-2-2-2-2-2-2-2-2-2-2-|--2-2-2-2-2-2-2-2-2-2-2-2-2-2-2-2-|
----------------------------------|----------------------------------|
----------------------------------|----------------------------------|


  S S S S S S S S S S S S S S S S    S S S S S S S S S S S S S S S S
----------------------------------|----------------------------------|
--0-0-0-0-0-0-0-0-0-0-0-0-0-0-0-0-|--2-2-2-2-2-2-2-2-2-2-2-2-2-2-2-2-|
----------------------------------|----------------------------------|
----------------------------------|----------------------------------|


  S S S S S S S S S S S S S S S S    S S S S S S S S S S S S S S S S
----------------------------------|----------------------------------|
----------------------------------|----------------------------------|
--4-4-4-4-4-4-4-4-4-4-4-4-4-4-4-4-|--4-4-4-4-4-4-4-4-4-4-4-4-4-4-4-4-|
----------------------------------|----------------------------------|


  S S S S S S E  E  S S E  S S    S S S S S S E  E  S S E  S S
-------------------------------|-------------------------------|
-------------------------------|-------------------------------|
--------------5---------5------|--------------4---------4------|
--2-2-2-2-2-2-------2-2----2-2-|--2-2-2-2-2-2-------2-2----2-2-|


  S S S S S S E  E  S S E  S S    S S S S S S E  E  S S E  S S
-------------------------------|-------------------------------|
-------------------------------|-------------------------------|
--------------5---------5------|--------------4---------4------|
--2-2-2-2-2-2-------2-2----2-2-|--2-2-2-2-2-2-------2-2----2-2-|


  S S S S S S E  E  S S E  S S    S S S S S S E  E  S S E  S S
-------------------------------|-------------------------------|
-------------------------------|-------------------------------|
--------------5---------5------|--------------2---------2------|
--0-0-0-0-0-0-------0-0----0-0-|--0-0-0-0-0-0-------0-0----0-0-|


  S S S S S S E  E  S S E  S S    S S S S S S E  E  S S E  S S
-------------------------------|-------------------------------|
-------------------------------|-------------------------------|
--------------5---------5------|--------------2---------2------|
--0-0-0-0-0-0-------0-0----0-0-|--0-0-0-0-0-0-------0-0----0-0-|


  S S S S S S E  E  S S E  S S    S S S S S S E  E  S S E  S S
-------------------------------|-------------------------------|
-------------------------------|-------------------------------|
--------------5---------5------|--------------4---------4------|
--2-2-2-2-2-2-------2-2----2-2-|--2-2-2-2-2-2-------2-2----2-2-|


  S S S S S S E  E  S S E  S S    S S S S S S E  E  S S E  S S
-------------------------------|-------------------------------|
-------------------------------|-------------------------------|
--------------5---------5------|--------------4---------4------|
--2-2-2-2-2-2-------2-2----2-2-|--2-2-2-2-2-2-------2-2----2-2-|


  S S S S S S E  E  S S E  S S    S S S S S S E  E  S S E  S S
-------------------------------|-------------------------------|
-------------------------------|-------------------------------|
--------------5---------5------|--------------2---------2------|
--0-0-0-0-0-0-------0-0----0-0-|--0-0-0-0-0-0-------0-0----0-0-|


  S S S S S S E  E  S S E  S S    S S S S S S E  E  S S E  S S
-------------------------------|-------------------------------|
-------------------------------|-------------------------------|
--------------5---------5------|--------------2---------2------|
--0-0-0-0-0-0-------0-0----0-0-|--0-0-0-0-0-0-------0-0----0-0-|


  S S S S S S Q    Q.        S S S S S S Q    Q.
--------------------------|--------------------------|
--------------------------|--------------------------|
--5-5-5-5-5-5-5----L------|--7-7-7-7-7-7-7----L------|
--------------------------|--------------------------|


  S S S S S S Q    Q.        S S S S S S S S S S S S S S S S
--------------------------|----------------------------------|
--------------------------|----------------------------------|
--4-4-4-4-4-4-4----L------|----------------------------------|
--------------------------|--2-2-2-2-2-2-2-2-0-0-0-0-0-0-0-0-|


  S S S S S S Q    Q.        S S S S S S Q    Q.
--------------------------|--------------------------|
--------------------------|--------------------------|
--5-5-5-5-5-5-5----L------|--2-2-2-2-2-2-2----L------|
--------------------------|--------------------------|


  S S S S S S Q    Q.        S S S S S S Q    Q.
--------------------------|--------------------------|
--------------------------|--------------------------|
--4-4-4-4-4-4-4----L------|--4-4-4-4-4-4-4----L------|
--------------------------|--------------------------|


  S S S S S S S S S S S S S S S S    S S S S S S S S S S S S S S S S
----------------------------------|----------------------------------|
--4-4-4-4-4-4-4-4-4-4-4-4-4-4-4-4-|--4-4-4-4-4-4-4-4-4-4-4-4-4-4-4-4-|
----------------------------------|----------------------------------|
----------------------------------|----------------------------------|


  S S S S S S S S S S S S S S S S    S S S S S S S S S S S S S S S S
----------------------------------|----------------------------------|
--2-2-2-2-2-2-2-2-2-2-2-2-2-2-2-2-|--2-2-2-2-2-2-2-2-2-2-2-2-2-2-2-2-|
----------------------------------|----------------------------------|
----------------------------------|----------------------------------|


  S S S S S S S S S S S S S S S S    S S S S S S S S S S S S S S S S
----------------------------------|----------------------------------|
--4-4-4-4-4-4-4-4-4-4-4-4-4-4-4-4-|--4-4-4-4-4-4-4-4-4-4-4-4-4-4-4-4-|
----------------------------------|----------------------------------|
----------------------------------|----------------------------------|


  S S S S S S S S S S S S S S S S    S S S S S S S S S S S S S S S S
----------------------------------|----------------------------------|
--2-2-2-2-2-2-2-2-2-2-2-2-2-2-2-2-|--2-2-2-2-2-2-2-2-2-2-2-2-2-2-2-2-|
----------------------------------|----------------------------------|
----------------------------------|----------------------------------|


  S S S S S S S S S S S S S S S S    S S S S S S S S S S S S S S S S
----------------------------------|----------------------------------|
--0-0-0-0-0-0-0-0-0-0-0-0-0-0-0-0-|--2-2-2-2-2-2-2-2-2-2-2-2-2-2-2-2-|
----------------------------------|----------------------------------|
----------------------------------|----------------------------------|


  S S S S S S S S S S S S S S S S    S S S S S S S S S S S S S S S S
----------------------------------|----------------------------------|
----------------------------------|----------------------------------|
--4-4-4-4-4-4-4-4-4-4-4-4-4-4-4-4-|--4-4-4-4-4-4-4-4-4-4-4-4-4-4-4-4-|
----------------------------------|----------------------------------|


                  S S S S S S E  E  S S E  S S
-------|-------|-------------------------------|
-------|-------|-------------------------------|
-------|-------|--------------5---------5------|
-------|-------|--2-2-2-2-2-2-------2-2----2-2-|


  S S S S S S E  E  S S E  S S    S S S S S S E  E  S S E  S S
-------------------------------|-------------------------------|
-------------------------------|-------------------------------|
--------------4---------4------|--------------5---------5------|
--2-2-2-2-2-2-------2-2----2-2-|--2-2-2-2-2-2-------2-2----2-2-|


  S S S S S S E  E  S S E  S S    S S S S S S E  E  S S E  S S
-------------------------------|-------------------------------|
-------------------------------|-------------------------------|
--------------4---------4------|--------------5---------5------|
--2-2-2-2-2-2-------2-2----2-2-|--0-0-0-0-0-0-------0-0----0-0-|


  S S S S S S E  E  S S E  S S    S S S S S S E  E  S S E  S S
-------------------------------|-------------------------------|
-------------------------------|-------------------------------|
--------------2---------2------|--------------5---------5------|
--0-0-0-0-0-0-------0-0----0-0-|--0-0-0-0-0-0-------0-0----0-0-|


  S S S S S S E  E  S S E  S S    S S S S S S E  E  S S E  S S
-------------------------------|-------------------------------|
-------------------------------|-------------------------------|
--------------2---------2------|--------------5---------5------|
--0-0-0-0-0-0-------0-0----0-0-|--2-2-2-2-2-2-------2-2----2-2-|


  S S S S S S E  E  S S E  S S    S S S S S S E  E  S S E  S S
-------------------------------|-------------------------------|
-------------------------------|-------------------------------|
--------------4---------4------|--------------5---------5------|
--2-2-2-2-2-2-------2-2----2-2-|--2-2-2-2-2-2-------2-2----2-2-|


  S S S S S S E  E  S S E  S S    S S S S S S E  E  S S E  S S
-------------------------------|-------------------------------|
-------------------------------|-------------------------------|
--------------4---------4------|--------------5---------5------|
--2-2-2-2-2-2-------2-2----2-2-|--0-0-0-0-0-0-------0-0----0-0-|


  S S S S S S E  E  S S E  S S    S S S S S S E  E  S S E  S S
-------------------------------|-------------------------------|
-------------------------------|-------------------------------|
--------------2---------2------|--------------5---------5------|
--0-0-0-0-0-0-------0-0----0-0-|--0-0-0-0-0-0-------0-0----0-0-|


  S S S S S S E  E  S S E  S S    S S S S S S Q    Q.
-------------------------------|--------------------------|
-------------------------------|--------------------------|
--------------2---------2------|--5-5-5-5-5-5-5----L------|
--0-0-0-0-0-0-------0-0----0-0-|--------------------------|


  S S S S S S Q    Q.        S S S S S S Q    Q.
--------------------------|--------------------------|
--------------------------|--------------------------|
--7-7-7-7-7-7-7----L------|--4-4-4-4-4-4-4----L------|
--------------------------|--------------------------|


  S S S S S S S S S S S S S S S S    S S S S S S Q    Q.
----------------------------------|--------------------------|
----------------------------------|--------------------------|
----------------------------------|--5-5-5-5-5-5-5----L------|
--2-2-2-2-2-2-2-2-0-0-0-0-0-0-0-0-|--------------------------|


  S S S S S S Q    Q.        S S S S S S Q    Q.
--------------------------|--------------------------|
--------------------------|--------------------------|
--2-2-2-2-2-2-2----L------|--4-4-4-4-4-4-4----L------|
--------------------------|--------------------------|


  S S S S S S Q    Q.        S S S S S S S S S S S S S S S S
--------------------------|----------------------------------|
--------------------------|--4-4-4-4-4-4-4-4-4-4-4-4-4-4-4-4-|
--4-4-4-4-4-4-4----L------|----------------------------------|
--------------------------|----------------------------------|


  S S S S S S S S S S S S S S S S    S S S S S S S S S S S S S S S S
----------------------------------|----------------------------------|
--4-4-4-4-4-4-4-4-4-4-4-4-4-4-4-4-|--2-2-2-2-2-2-2-2-2-2-2-2-2-2-2-2-|
----------------------------------|----------------------------------|
----------------------------------|----------------------------------|


  S S S S S S S S S S S S S S S S    S S S S S S S S S S S S S S S S
----------------------------------|----------------------------------|
--2-2-2-2-2-2-2-2-2-2-2-2-2-2-2-2-|--4-4-4-4-4-4-4-4-4-4-4-4-4-4-4-4-|
----------------------------------|----------------------------------|
----------------------------------|----------------------------------|


  S S S S S S S S S S S S S S S S    S S S S S S S S S S S S S S S S
----------------------------------|----------------------------------|
--4-4-4-4-4-4-4-4-4-4-4-4-4-4-4-4-|--2-2-2-2-2-2-2-2-2-2-2-2-2-2-2-2-|
----------------------------------|----------------------------------|
----------------------------------|----------------------------------|


  S S S S S S S S S S S S S S S S    S S S S S S S S S S S S S S S S
----------------------------------|----------------------------------|
--2-2-2-2-2-2-2-2-2-2-2-2-2-2-2-2-|--0-0-0-0-0-0-0-0-0-0-0-0-0-0-0-0-|
----------------------------------|----------------------------------|
----------------------------------|----------------------------------|


  S S S S S S S S S S S S S S S S    S S S S S S S S S S S S S S S S
----------------------------------|----------------------------------|
--2-2-2-2-2-2-2-2-2-2-2-2-2-2-2-2-|----------------------------------|
----------------------------------|--4-4-4-4-4-4-4-4-4-4-4-4-4-4-4-4-|
----------------------------------|----------------------------------|


  S S S S S S S S S S S S S S S S    S S S S S S S S S S S S S S S S
----------------------------------|----------------------------------|
----------------------------------|--0-0-0-0-0-0-0-0-0-0-0-0-0-0-0-0-|
--4-4-4-4-4-4-4-4-4-4-4-4-4-4-4-4-|----------------------------------|
----------------------------------|----------------------------------|


  S S S S S S S S S S S S S S S S    S S S S S S S S S S S S S S S S
----------------------------------|----------------------------------|
--2-2-2-2-2-2-2-2-2-2-2-2-2-2-2-2-|----------------------------------|
----------------------------------|--4-4-4-4-4-4-4-4-4-4-4-4-4-4-4-4-|
----------------------------------|----------------------------------|


  S S S S S S S S S S S S S S S S    S S S S S Q    S S S S S E
----------------------------------|------------------------------|
----------------------------------|------------------------------|
--4-4-4-4-4-4-4-4-4-4-4-4-4-4-4-4-|------------------------------|
----------------------------------|--2-2-2-2-2--------2---2-2----|


  S S S S S E.  S S E  S S E     S S S S S Q    S S S S S E
------------------------------|------------------------------|
------------------------------|------------------------------|
------------------------------|------------------------------|
--2-2-2-2-2-----2-2----2-2----|--2-2-2-2-2--------2---2-2----|


  S S S S S E.  S S E  S S E     S S S S S Q    S S S S S E
------------------------------|------------------------------|
------------------------------|------------------------------|
------------------------------|------------------------------|
--2-2-2-2-2-----2-2----2-2----|--2-2-2-2-2--------2---2-2----|


  S S S S S E.  S S E  S S E     S S S S S Q    S S S S S E
------------------------------|------------------------------|
------------------------------|------------------------------|
------------------------------|------------------------------|
--2-2-2-2-2-----2-2----2-2----|--2-2-2-2-2--------2---2-2----|


  S S S S S E.  S S E  S S E     S S S S S Q    S S S S S E
------------------------------|------------------------------|
------------------------------|------------------------------|
------------------------------|--5-5-5-5-5--------5---5-5----|
--2-2-2-2-2-----2-2----2-2----|------------------------------|


  S S S S S E.  S S E  S S E     S S S S S Q    S S S S S E
------------------------------|------------------------------|
------------------------------|------------------------------|
--5-5-5-5-5-----5-5----5-5----|--5-5-5-5-5--------5---5-5----|
------------------------------|------------------------------|


  S S S S S E.  S S E  S S E     S S S S S Q    S S S S S E
------------------------------|------------------------------|
------------------------------|------------------------------|
--5-5-5-5-5-----5-5----5-5----|--5-5-5-5-5--------5---5-5----|
------------------------------|------------------------------|


  S S S S S E.  S S E  S S E     S S S S S Q    S S S S S E
------------------------------|------------------------------|
------------------------------|------------------------------|
--5-5-5-5-5-----5-5----5-5----|--5-5-5-5-5--------5---5-5----|
------------------------------|------------------------------|


  S S S S S E.  S S E  S S E     E  S S S S S S S S S S S S S S
------------------------------|---------------------------------|
------------------------------|---------------------------------|
--5-5-5-5-5-----5-5----5-5----|---------------------------------|
------------------------------|--2--2-2-2-2-2-2-2-2-2-2-2-2-2-2-|


  E  S S S S S S E  S S S S S S    S S S S S S S S S S S S S S S S
--------------------------------|----------------------------------|
--------------------------------|----------------------------------|
--------------------------------|----------------------------------|
--3--2-2-2-2-2-2-2--2-2-2-2-2-2-|--0-0-0-0-0-0-0-0-0-0-0-0-0-0-0-0-|


  E  S S S S S S E  S S S S S S    E  S S S S S S S S S S S S S S
--------------------------------|---------------------------------|
--------------------------------|---------------------------------|
--------------------------------|---------------------------------|
--3--0-0-0-0-0-0-0--0-0-0-0-0-0-|--2--2-2-2-2-2-2-2-2-2-2-2-2-2-2-|


  E  S S S S S S E  S S S S S S    S S S S S S S S S S S S S S S S
--------------------------------|----------------------------------|
--------------------------------|----------------------------------|
--------------------------------|----------------------------------|
--3--2-2-2-2-2-2-2--2-2-2-2-2-2-|--0-0-0-0-0-0-0-0-0-0-0-0-0-0-0-0-|


  E  S S S S S S E  S S S S S S    W
--------------------------------|-------------------|
--------------------------------|-------------------|
--------------------------------|--5----------------|
--3--0-0-0-0-0-0-0--0-0-0-0-0-0-|-------------------|


  W                   W                   H        H
-------------------|-------------------|--------------------|
-------------------|-------------------|--------------------|
--7----------------|--4----------------|--------------------|
-------------------|-------------------|--2--------0--------|


  W                   W                   W
-------------------|-------------------|-------------------|
-------------------|-------------------|-------------------|
--5----------------|--2----------------|--4----------------|
-------------------|-------------------|-------------------|


  W                   W                   W
-------------------|-------------------|-------------------|
-------------------|--4----------------|--4----------------|
--4----------------|-------------------|-------------------|
-------------------|-------------------|-------------------|


  W                   W                   W
-------------------|-------------------|-------------------|
--2----------------|--2----------------|--4----------------|
-------------------|-------------------|-------------------|
-------------------|-------------------|-------------------|


  W                   W                   W
-------------------|-------------------|-------------------|
--4----------------|--2----------------|--2----------------|
-------------------|-------------------|-------------------|
-------------------|-------------------|-------------------|


  S S S S S S Q    Q.        S S S S S S Q    Q.
--------------------------|--------------------------|
--------------------------|--------------------------|
--5-5-5-5-5-5-5----L------|--7-7-7-7-7-7-7----L------|
--------------------------|--------------------------|


  S S S S S S Q    Q.        S S S S S S S S S S S S S S S S
--------------------------|----------------------------------|
--------------------------|----------------------------------|
--4-4-4-4-4-4-4----L------|----------------------------------|
--------------------------|--2-2-2-2-2-2-2-2-0-0-0-0-0-0-0-0-|


  S S S S S S Q    Q.        S S S S S S Q    Q.
--------------------------|--------------------------|
--------------------------|--------------------------|
--5-5-5-5-5-5-5----L------|--2-2-2-2-2-2-2----L------|
--------------------------|--------------------------|


  S S S S S S Q    Q.        S S S S S S Q    Q.
--------------------------|--------------------------|
--------------------------|--------------------------|
--4-4-4-4-4-4-4----L------|--4-4-4-4-4-4-4----L------|
--------------------------|--------------------------|


  S S S S S S S S S S S S S S S S    S S S S S S S S S S S S S S S S
----------------------------------|----------------------------------|
--4-4-4-4-4-4-4-4-4-4-4-4-4-4-4-4-|--4-4-4-4-4-4-4-4-4-4-4-4-4-4-4-4-|
----------------------------------|----------------------------------|
----------------------------------|----------------------------------|


  S S S S S S S S S S S S S S S S    S S S S S S S S S S S S S S S S
----------------------------------|----------------------------------|
--2-2-2-2-2-2-2-2-2-2-2-2-2-2-2-2-|--2-2-2-2-2-2-2-2-2-2-2-2-2-2-2-2-|
----------------------------------|----------------------------------|
----------------------------------|----------------------------------|


  S S S S S S S S S S S S S S S S    S S S S S S S S S S S S S S S S
----------------------------------|----------------------------------|
--4-4-4-4-4-4-4-4-4-4-4-4-4-4-4-4-|--4-4-4-4-4-4-4-4-4-4-4-4-4-4-4-4-|
----------------------------------|----------------------------------|
----------------------------------|----------------------------------|


  S S S S S S S S S S S S S S S S    S S S S S S S S S S S S S S S S
----------------------------------|----------------------------------|
--2-2-2-2-2-2-2-2-2-2-2-2-2-2-2-2-|--2-2-2-2-2-2-2-2-2-2-2-2-2-2-2-2-|
----------------------------------|----------------------------------|
----------------------------------|----------------------------------|


  S S S S S S S S S S S S S S S S    S S S S S S S S S S S S S S S S
----------------------------------|----------------------------------|
--0-0-0-0-0-0-0-0-0-0-0-0-0-0-0-0-|--2-2-2-2-2-2-2-2-2-2-2-2-2-2-2-2-|
----------------------------------|----------------------------------|
----------------------------------|----------------------------------|


  S S S S S S S S S S S S S S S S    S S S S S S S S S S S S S S S S
----------------------------------|----------------------------------|
----------------------------------|----------------------------------|
--4-4-4-4-4-4-4-4-4-4-4-4-4-4-4-4-|--4-4-4-4-4-4-4-4-4-4-4-4-4-4-4-4-|
----------------------------------|----------------------------------|


  S S S S S S S S S S S S S S S S    S S S S S S S S S S S S S S S S
----------------------------------|----------------------------------|
--0-0-0-0-0-0-0-0-0-0-0-0-0-0-0-0-|--2-2-2-2-2-2-2-2-2-2-2-2-2-2-2-2-|
----------------------------------|----------------------------------|
----------------------------------|----------------------------------|


  S S S S S S S S S S S S S S S S    S S S S S S S S S S S S S S S S
----------------------------------|----------------------------------|
----------------------------------|----------------------------------|
--4-4-4-4-4-4-4-4-4-4-4-4-4-4-4-4-|--4-4-4-4-4-4-4-4-4-4-4-4-4-4-4-4-|
----------------------------------|----------------------------------|


  |----3----|                |----3----|
  Q    Q    Q    H           Q    Q    Q    H
--------------------------|--------------------------|
--------------------------|--------------------------|
--4----5----2----4--------|--4----5----2----4--------|
--------------------------|--------------------------|


  |----3----|                |----3----|
  Q    Q    Q    H           Q    Q    Q    H
--------------------------|--------------------------|---------||
--------------------------|--------------------------|---------||
--2----0----2----2--------|--------------------------|---------||
--------------------------|--5----4----5----2--------|---------||

NOTA:

Espero y te ayude en algo esta tab.
Si necesitas una tab en especial, escríbeme o visita...

http://www.myspace.com/alejandrolauyola

- Revisa la afinación de esta canción en especial
- Pon atención a las instrucciones que están al final
- CALIFICA SOLO SI LEÍSTE "EL MANUAL"-


Duration Legend
---------------
W - whole
H - half
Q - quarter
E - 8th
S - 16th
T - 32nd
X - 64th
. - note dotted
|-n-|  - n-tuplets


Tablature Legend
----------------
L - tied note
x - dead note
g - grace note
(n) - ghost note
> - accentuded note
NH - natural harmonic
AH - artificial harmonic
TH - tapped harmonic
SH - semi harmonic
PH - pitch harmonic
h - hammer on
p - pull off
b - bend
br - bendRelease
pb - preBend
pbr - preBendRelease
brb - bendReleaseBend
n/ - tremolo bar dip
n - tremolo bar dive
-/n - tremolo bar Release up
/n - tremolo bar inverted dip
/n - tremolo bar return
-n - tremolo bar Release down
S - shift slide
s - legato slide
/ -  slide into from below or out of upwards
 -  slide into from above or out of downwards
~ - vibrato
W - wide vibrato
tr - trill
TP - tremolo picking
T - tapping
S - slap
P - pop
< - fade in
^ - brush up
v - brush down


Video Clip de Deja Vu


ACORDES PARA GUITARRA

PIANO UKELELE


TOP 20: Las más tocadas de Saratoga


Toca una Canción al Azar de Saratoga

Acordes

Cerrar

22.33

x

70