De hobbiton a los gamos (Acordes)

Saurom Lamderth

Subida por KAteKing

Compartir


Imprimir FAQ
+A
-A

Texto

Desplazamiento

Transportador

Color de Fondo

Archivos

-A
+A
Esta son las notas que se tocan en  la flauta, adaptadas a la guitarra


E----------------------------------------------------------|
a----------------------------------------------------------|
d--7-------------------------7-----5-----------------------|  X2
g------------------7---5---4---4-----7-7-7---7---7---------|
b----5-5-5-8-5-8-5---5---5-----------------5---5---8-6-5-6-|
e----------------------------------------------------------|

E--------------------------------------------------|
a--------------------------------------------------|
d-7----------------------5-------------------------|
g---------------------7------------7-------7-5-----|
b---6-6-6-6-5-6-8-6-5------5-5-5-5---5-6-5---------|
e--------------------------------------------------|

E--------------------------------------------------------|
a--------------------------------------------------------|
d-7----------------------5-------------------------7-5-7-|
g---------------------7------------7-5-7-5-5-4-5-4-------|
b---6-6-6-6-5-6-8-6-5------5-5-5-5-----------------------|
e--------------------------------------------------------|


Video Clip de De hobbiton a los gamos


ACORDES PARA GUITARRA

PIANO UKELELE


TOP 20: Las más tocadas de Saurom Lamderth


Acordes

Cerrar

13.30

x

75