La Comarca (Acordes)

Saurom Lamderth

Subida por Mymusic23

Compartir


Imprimir FAQ
+A
-A

Texto

Desplazamiento

Transportador

Color de Fondo

Archivos

-A
+A
E-------------------------|
a-------------------------|
d-------------------------|
g-------------3-----------|
b-------4h1-1---1-4---4---|
e-4h3-1-------------1---1-|

E--------------------------|
a--------------------------|
d--------------------------|
g---------------------3----|
b-4-------4-4-------4---1--|
e---1-4-3-----6h4-3--------|

E--------------------------|
a--------------------------|
d--------------------------|
g---------------------3----|
b-1-4-------------4-1---1--|
e-----1-1-1-1-3-1----------|

E--------------------------|
a--------------------------|
d--------------------------|
g-------------------3------|
b-4-6-6-6-6-------4--------|
e-----------6-4-3-----3----|

E-------------------------|
a-------------------------|
d-------------------------|
g-------------3-----------|
b-------4h1-1---1-4---4---|
e-4h3-1-------------1---1-|

E--------------------------|
a--------------------------|
d--------------------------|
g---------------------3----|
b-4-------4-4-------4---1--|
e---1-4-3-----6h4-3--------|

E--------------------------|
a--------------------------|
d--------------------------|
g---------------------3----|
b-1-4-------------4-1---1--|
e-----1-1-1-1-3-1----------|

E--------------------------|
a--------------------------|
d--------------------------|
g-------------------3------|
b-4-6-6-6-6-------4--------|
e-----------6-4-3-----3~---|

HERRAMIENTAS ACORDESWEB:


LETRA DE LA CANCIÓN:

Ver la letra sola (sin acordes)

OTRAS VERSIONES DE LA MISMA CANCIÓN:

Ver. 2

DESCARGAR PDF / IMPRIMIR CANCIÓN



ACORDES PARA GUITARRA

PIANO UKELELE


TOP 20: Las más tocadas de Saurom Lamderth


Acordes

Cerrar

10.52

x

32