La batalla con los cueros de vino (Acordes)

Saurom Lamderth

Subida por fersuke32

Compartir


Cambiar Cifrado
Americano Latino

Cambiar Tonalidad
-1 +1
Imprimir FAQ
+A
-A

Texto

Desplazamiento

Transportador

Color de Fondo

Archivos

TONALIDAD, TAMAÑO, CIFRADO, SCROL.

Nos renovamos: Ahora puedes cambiar TODO haciendo clic en ICONO de la Guitarra () que aparece en la parte inferior de esta página.


LETRA CON ACORDES

E-----------------------------------------------------------------|
a-----------------------------------------------------------------|
d-----------------------------------------------------------------|
g---------------------------------------------------7-----7-------| X2
b-------8-6-----6----------8-6-5-8---5-8------8-6-5---6-----6---8-|
e-8-6-5-----5-8---5-8--6-5---------6-----6--5-----------5-----5---|

E-----------------------------------------------------------------------|
a-----------------------------------------------------------------------|
d-----------------------------------------------------------------------|
g---7---7---7---7---7------7---7---7---7---7------5---5---5---5---5---5-|
b-----6---6-------6---6------6---6-------6---6------6---6-------6---6---|
e-5-----------5----------6-----------6----------5-----------5-----------|

E-------------------------|
a-------------------------|
d-------------------------|
g---5---5---5---5---5---5-|
b-----5---5-------5---5---|
e-3-----------3-----------|

E-----------------------------------------------------------------------|
a-----------------------------------------------------------------------|
d-----------------------------------------------------------------------|
g---7---7---7---7---7------7---7---7---7---7------5---5---5---5---5---5-|
b-----6---6-------6---6------6---6-------6---6------6---6-------6---6---|
e-5-----------5----------6-----------6----------5-----------5-----------|

E---------------------------|
a---------------------------|
d---------------------------|
g---5---5---5---5---5---5---|
b-----5---5-------5---5---6-|
e-3-----------3-------------|



[Quijote:]

  F          C
¡Tente, gigante ladrón!
 Dm              A#
¡Sancho, no tengas temor!
 F             C
Cientos de ataques haré
 Dm        A#
¡Ogro, sucumbe a mis pies!
 F                C
Princesa "Micomicona"
 Dm                A#
Este caballero te vela
 F            C
Mi espada es tu aliada
 Dm            A#
La batalla está ganada...


E-----------------------------------------------------------------|
a-----------------------------------------------------------------|
d-----------------------------------------------------------------|
g---------------------------------------------------7-----7-------| X2
b-------8-6-----6----------8-6-5-8---5-8------8-6-5---6-----6---8-|
e-8-6-5-----5-8---5-8--6-5---------6-----6--5-----------5-----5---|



F-A#-F-C-FA#-F-C


[Narrador:]

 F             C-Am             A#
El bravo Quijote, se puso a lanzar
 F        C            A#
Inmensas cuchilladas, para matar
                                 C
Aquel monstruo cruel, que era un ideal...


 F                 C
Deja entrar sólo una vez más
         Dm           A7-A#
En tu mente una ilusión
 F                  C
Quiero ser aunque sea esta vez
        Dm                 A#-C
El Quijote que yo siempre soñé


E-----------------------------------------------------------------|
a-----------------------------------------------------------------|
d-----------------------------------------------------------------|
g---------------------------------------------------7-----7-------| X2
b-------8-6-----6----------8-6-5-8---5-8------8-6-5---6-----6---8-|
e-8-6-5-----5-8---5-8--6-5---------6-----6--5-----------5-----5---|



F-C-D-A#-F-C-D-A#


[Ventero:]

 F         C
¡Loco, hidalgo burlón!
 Dm        A#
¡Para, gandul soñador!
 F          C
¡Basta, deja de horadar!
 Dm              A#
¡Calma, tu espada voraz!
 F                    C        Dm
Rajas mis cueros de vino, crees
                A#      F
que son el enemigo... ahora el cura
    C            Dm          A#
es tu doncella ¡Todo juicio has perdido!


E--------------------------------------------------------------------|
a--------------------------------------------------------------------|
g--------------------------------------------------------------------|
d-10---10----10----10---10----10----10---10----10--------------------|
b---------10----10---------10----10---------10----10-8-10-11-8-10-11-|
e----8----------------8----------------8-----------------------------|

E------------------------------------------------------------------|
a------------------------------------------------------------------|
g------------------------------------------------------------------|
d-10---10----10----10---10----10----10---10----10------10-9---10-9-|
b---------10----10---------10----10---------10----10-8------8------|
e----8----------------8----------------8---------------------------|


E--------------------------------------------------------------------|
a--------------------------------------------------------------------|
g--------------------------------------------------------------------|
d-10---10----10----10---10----10----10---10----10--------------------|
b---------10----10---------10----10---------10----10-8-10-11-8-10-11-|
e----8----------------8----------------8-----------------------------|

E---------------------------------------------------------------------|
a---------------------------------------------------------------------|
g---------------------------------------------------------------------|
d-10---10----10----10---10----10----10---10----10------10-9---10-9-10-|
b---------10----10---------10----10---------10----10-8------8---------|
e----8----------------8----------------8------------------------------|


F-A#-F-C-F-A#-F-C


[Narrador:]

 F              C-Am             A#
El vino esparcido por todo el lugar
 F        C               A#
Toma la mano al cura, se postra ante él
                   C
Alteza vencí, "fermosa" mujer...


F                 C
Deja entrar sólo una vez más
         Dm           A7-A#
En tu mente una ilusión
 F                  C
Quiero ser aunque sea esta vez
        Dm                 A#-C
El Quijote que yo siempre soñé


[Quijote:]

 F                    C
Llevo 400 años deambulando con mi fiel
              Dm                              A#
escudero Don Sancho combatiendo molinos gigantes
     C   F                                  C
por tí. Aún hoy, creen que soy un loco vagabundo...
                                   Dm
Abro el libro y me asomo a tu mundo...
                           A#-C
Déjenme con mi extraña locura aquí...



E-----------------------------------------------------------------------|
a-----------------------------------------------------------------------|
d-----------------------------------------------------------------------|
g---7---7---7---7---7------7---7---7---7---7------5---5---5---5---5---5-|
b-----6---6-------6---6------6---6-------6---6------6---6-------6---6---|
e-5-----------5----------6-----------6----------5-----------5-----------|

E-------------------------|
a-------------------------|
d-------------------------|
g---5---5---5---5---5---5-|
b-----5---5-------5---5---|
e-3-----------3-----------|

E-----------------------------------------------------------------------|
a-----------------------------------------------------------------------|
d-----------------------------------------------------------------------|
g---7---7---7---7---7------7---7---7---7---7------5---5---5---5---5---5-|
b-----6---6-------6---6------6---6-------6---6------6---6-------6---6---|
e-5-----------5----------6-----------6----------5-----------5-----------|

E---------------------------|
a---------------------------|
d---------------------------|
g---5---5---5---5---5---5---|
b-----5---5-------5---5---6-|
e-3-----------3-------------|


E-----------------------------------------------------------------------|
a-----------------------------------------------------------------------|
d-----------------------------------------------------------------------|
g---7---7---7---7---7------7---7---7---7---7------5---5---5---5---5---5-|
b-----6---6-------6---6------6---6-------6---6------6---6-------6---6---|
e-5-----------5----------6-----------6----------5-----------5-----------|

E-------------------------|
a-------------------------|
d-------------------------|
g---5---5---5---5---5---5-|
b-----5---5-------5---5---|
e-3-----------3-----------|

E-----------------------------------------------------------------------|
a-----------------------------------------------------------------------|
d-----------------------------------------------------------------------|
g---7---7---7---7---7------7---7---7---7---7------5---5---5---5---5---5-|
b-----6---6-------6---6------6---6-------6---6------6---6-------6---6---|
e-5-----------5----------6-----------6----------5-----------5-----------|

E---------------------------|
a---------------------------|
d---------------------------|
g---5---5---5---5---5---5---|
b-----5---5-------5---5---6-|
e-3-----------3-------------|


Video Clip de La batalla con los cueros de vino


ACORDES PARA GUITARRA

PIANO UKELELE
F
C
Dm
A#
F#
Am
Fdim
A7
D


TOP 20: Las más tocadas de Saurom Lamderth


Acordes

Cerrar
F
C
Dm
A#
F#
Am
Fdim
A7
D

10.47

x

84