136 - o Reino Já É Uma Realidade - Que Ele Venha (Acordes)

Testemunhas de Jeová

Subida por saynomore

Compartir


Imprimir FAQ
+A
-A

Texto

Desplazamiento

Transportador

Color de Fondo

Archivos

-A
+A
1ª e 2ª parte:

E|-------------------------------------------|
B|-------------8-----------------------------|
G|-9-9-9-9-9-7---9----------9--9-7---6-------|
D|------------------------7--------9---------|
A|-----------------0-0-0---------------------|
E|-------------------------------------------

E|--------------------------------------------|
B|---10--10-10-9-7---8------------------------|
G|-6---------------9---------9-9/11----9------|
D|----------------------------------12---11-9-|
A|--------------------------------------------|
E|--------------------------------------------|

Pré-refrão:

E|--------------------------------------------------|
B|-----------------------------10-9-7---7-9-10-12---|
G|------------------------------------9-------------|
D|--9-11/12-11-9----9-11-11/12----------------------|
A|---------------12---------------------------------|
E|--------------------------------------------------|

Refrão:

E|---------------------------------------------|
B|-9-10--10-12--12-12/14--10-----7-9-10-14-12--|
G|---------------------------7-9---------------|
D|---------------------------------------------|
A|---------------------------------------------|
E|---------------------------------------------|

E|---------------------------10-9-----------------|
B|-9-10--10-12--12-12/14--10------12-10-12-9-9h10-|
G|------------------------------------------------|
D|------------------------------------------------|
A|------------------------------------------------|
E|------------------------------------------------|

Video Clip de 136 - o Reino Já É Uma Realidade - Que Ele Venha


ACORDES PARA GUITARRA

PIANO UKELELE


TOP 20: Las más tocadas de Testemunhas de Jeová


Acordes

Cerrar

05.01

x

142