Ele Chamará- 111 (Acordes)

Testemunhas de Jeová

Subida por Sergio2121

Compartir


Cambiar Cifrado
Americano Latino

Cambiar Tonalidad
-1 +1
Imprimir FAQ

Para cambio de tonalidad, zoom, cambio de cifrado, haz clic en este botón


CONSEJO:

Afina tu guitarra antes de tocar. Prueba nuestro afinador en linea.

+A
-A

Texto

Desplazamiento

Transportador

Color de Fondo

Archivos

TONALIDAD, TAMAÑO, CIFRADO, SCROL.

Nos renovamos: Ahora puedes cambiar TODO haciendo clic en ICONO de la Guitarra () que aparece en la parte inferior de esta página.


LETRA CON ACORDES

E|--------------|---------------|--------------|---------|
B|--------------|---------------|--------------|---------|
G|--------2-----|---------------|--------------|---------|
D|-4--2-4-----0-|-0-2-2-4-4-----|-4-2-2-4-0----|---------|
A|--------------|-------------0-|------------2~|~--------|
E|--------------|---------------|--------------|---------|

E|--------------|---------------|--------------|---------|
B|--------0-----|---------------|------------0-|---------|
G|-0----0-------|---------0---2-|--------------|---------|
D|----4-------4-|-4-2-2-4-------|-4-2-2-4-0----|---------|
A|--------------|---------------|--------------|---------|
E|--------------|---------------|--------------|---------|

E|--------------|---------------|--------------|---------|
B|-0-------0----|---------------|--------------|---------|
G|--------------|-2-------2-----|-2-0-0------0-|---------|
D|---0---0------|---0---0-------|-------4-4---2|-----0-2-|
A|-----4--------|-----4---------|--------------|---------|
E|--------------|---------------|--------------|---------|

E|-------------|------------|-----------|--------|
B|-------------|--------0-2-|-3---3-2---|-0----2-|
G|--------0----|-2----------|---------2-|--------|
D|-4----4----2-|----0-------|-----------|--------|
A|-------------|------------|-----------|--------|
E|-------------|------------|-----------|--------|

E|------------|------------|-------------|
B|----------0-|------------|-------------|
G|-2---2-2----|-2--0-------|-------2-0---|
D|------------|--------0-2-|-4---------2-|
A|------------|------------|-------------|
E|------------|------------|-------------|

E|---------|-------------|
B|---------|-------------|
G|---------|---------0---|
D|-0---0-2-|-4----4----2-|
A|---------|-------------|
E|---------|-------------|

E|------------|-----------|-------|-----------|------------|
B|--------0-2-|-3---3-2---|-0---2-|---------0-|------------|
G|-2----------|---------2-|-------|-2---2-2---|-2--0-------|
D|----0-------|-----------|-------|-----------|--------0-2-|
A|------------|-----------|-------|-----------|------------|
E|------------|-----------|-------|-----------|------------|

E|-----------|------|
B|-----------|------|
G|-----2-0---|------|
D|-4-------2-|-0----|
A|-----------|------|
E|-----------|------|


Video Clip de Ele Chamará- 111


ACORDES PARA GUITARRA

PIANO UKELELE


TOP 20: Las más tocadas de Testemunhas de Jeová


Acordes

Cerrar

17.32


184