60 - Ele o Fará Forte (Acordes)

Testemunhas de Jeová

Subida por Agustin1

Compartir


Cambiar Cifrado
Americano Latino

Cambiar Tonalidad
-1 +1
Imprimir FAQ

Para cambio de tonalidad, zoom, cambio de cifrado, haz clic en este botón


CONSEJO:

Afina tu guitarra antes de tocar. Prueba nuestro afinador en linea.

+A
-A

Texto

Desplazamiento

Transportador

Color de Fondo

Archivos

TONALIDAD, TAMAÑO, CIFRADO, SCROL.

Nos renovamos: Ahora puedes cambiar TODO haciendo clic en ICONO de la Guitarra () que aparece en la parte inferior de esta página.


LETRA CON ACORDES

E|----------------------------------|
B|----------------------------------|
G|---7-6-7---9-11----12-11-11-9-11--|
D|-7---------------12---------------|
A|----------------------------------|
E|----------------------------------|

E|-----------------------------|
B|-----------------------------|
G|---12-14-14-----12-12--------|
D|-12--------14-16-----12-14~--|
A|-----------------------------|
E|-----------------------------|

E|----------------------------------|
B|----------------------------------|
G|---7-6-7---9-11----12-11-11-9-11--|
D|-7---------------12---------------|
A|----------------------------------|
E|----------------------------------|

E|--------------------------|
B|----------------------12--|
G|-11-9-7-7-11-9-7-7-11-----|
D|--------------------------|
A|--------------------------|
E|--------------------------|

E|-------------------------------------------------|
B|---12-10-10-8-10---5-7-8---8-8-7-7-5-7---5-7-10--|
G|-7---------------7---------------------7---------|
D|-------------------------------------------------|
A|-------------------------------------------------|
E|-------------------------------------------------|

E|-------------------------------------|
B|-10-10-------10-10----------8-12-10--|
G|-------11-12-------7--6-4-7----------|
D|-------------------------------------|
A|-------------------------------------|
E|-------------------------------------|

E|------------------------------|
B|----8-7-7-5-7------7-5-5---5--|
G|-7--------------4--------7----|
D|------------------------------|
A|------------------------------|
E|------------------------------|

E|-------------------------------------|
B|-10-10-7-8-10-10-------13--15-12-10--|
G|-----------------7-6-7---------------|
D|-------------------------------------|
A|-------------------------------------|
E|-------------------------------------|

E|-----------------------------|
B|---10-8-8-7-7-----7-5-5------|
G|-7--------------2-------7-7--|
D|-----------------------------|
A|-----------------------------|
E|-----------------------------|


Video Clip de 60 - Ele o Fará Forte


ACORDES PARA GUITARRA

PIANO UKELELE


TOP 20: Las más tocadas de Testemunhas de Jeová


Acordes

Cerrar

00.14


178