Beautiful Daughter
The Move
Acordes

Subida por Johnsonsinue
Álbum: Shazam ( 1970)


Más Versiones
Ver. 2

Cambiar Cifrado
Americano Latino

Cambiar Tonalidad
-1 +1

Partir Pantalla Imprimir FAQ

+A
-A
Primeiro parte:
G B C A
G|----------|----------|----------|----------|
D|----------|----------|----------|----------|
A|----------|-------6--|-3-2------|-------777|
E|-3-2-3-5--|-7-6-7----|-----3----|-3h5-5----|

Refrão:
G A G A A
G|----------|------------|----------|------------|----------|
D|----------|------------|----------|------------|----------|
A|----------|------7-7-77|----------|------7-7-77|------7~--|
E|-3~-------|-5-55-------|-3~-------|-5-55-------|-5-55-----|

Segunda Parte:

A G G A
G|----------|------------|----------|----------|
D|----------|------------|----------|----------|
A|----------|------------|----------|---7-7-7-7|
E|-5h7-5-3--|-3h5-3-2-3-0|-3-0-3h5--|-5--------|

Refrão agora.

Terceira Parte:

É só marcar o sol(G) conforme a música.

Quarta Parte:

Repetir segunda parte.

Refrão duas vezes.

Marcar o sol depois.

Partes:
O tempo é 4 compassos (cada nota dividida em 4 tempos) sendo um tempo
uma semi-colcheia(1/4 de tempo) uma pausa de 1/4 de tempo depois outra semi colcheia
e mais uma pausa de 1/4 ai duas colcheias e depois uma semi colcheia
uma pausa de 1/4 de tempo outra semi colcheia e uma pausa de quarto de tempo

Refrão:
Deixe o sol soar 2 tempos e toque conforme as partes no la, na metade quando
ocorre o pulo para o mi(o 7777) toque as duas primeiras soando meio tempo e as outras conforme
o resto das partes.

ACORDES PARA GUITARRA

PIANO UKELELE


COMENTARIOS

Aún no hay comentarios,

¡escribe el primero!

Escribe una pregunta, duda o comentario sobre esta canción, te responderemos a la brevedad.

Las más tocadas de The Move

Toca una Canción al Azar de The Move