Blackberry Way
The Move
Acordes

Subida por santicolque


Más Versiones
Ver. 2

Cambiar Cifrado
Americano Latino

Cambiar Tonalidad
-1 +1

Partir Pantalla Imprimir FAQ

+A
-A


Ver solo la LETRA

as the B side on December 1968. It hit number 1 in the UK
chart.

---------------------------------------------------------------------

Tabbed by:PJVillanueva






Tune your guitar a quarter step down to match the recording.





Absolutely pouring down with rain
It's a terrible day

Up with a lark
Silly girl I don't know what to say
She was running away

So now I'm standing on the corner
Lost, in the things that I say
What am I supposed to do now


I can't see you
I don't need you
Sure to want me back another day


Gone to the park
Overgrowing but the trees are bare
There's a memory there

Boats on the lake
Unattended now, they're all to drown
I'm incredibly down

Just like myself they are neglected
Turn, with my eyes to the war
What am I supposed to do now


I can't see you
I don't need you
Sure to want me back another day


Ooooo black, Ooooo black, Ooooooooooooo
Aaaaaahhhhhh Aaaaaaahhhh Aaaaaaaaahhhh
Ooooo black, Ooooo black, Ooooooooooooo
Aaaaaahhhhhh Aaaaaaahhhhh Aaaaaaahhhhhh


Run for the train
Look behind you for she may be there
Say the thing, you're the girl

See the battlefields of care or sins
Cast to the winds

So full of accidents without her
Lost in the words that I said
What am I supposed to do now


I can't see you
I don't need you
Sure to want me back another day





12/8



Em Em+5 Em6 Em+5 Em
e|0----- 0----- 0----- 0-----|0----- 0----- 0----- 0-----|
B|0------0------1------1-----|2------2------1------0-----|
G|0------0------0------0-----|0------0------0------0-----|
D|2------2------2------2-----|2------2------2------2-----|
A|2------2------2------2-----|2------2------2------2-----|
E|0------0------0------0-----|0------0------0------0-----|


x x x X X X
F#7 A
e|2----- 2----- 2----- 2-----|0----- 0----- 0----- 0-----|
B|5------5------5------5-----|1------1------1------1-----|
G|3------3------3------3-----|2------2------2------2-----|
D|2------2------2------2-----|2------2------2------2-----|
A|4------4------4------4-----|0------0------0------0-----|
E|2------2------2------2-----|---------------------------|
down It's a terrible day
with rain


Em Em+5 Em6 Em+5 Em
e|0----- 0----- 0----- 0-----|0----- 0----- 0----- 0-----|
B|0------0------1------1-----|2------2------1------0-----|
G|0------0------0------0-----|0------0------0------0-----|
D|2------2------2------2-----|2------2------2------2-----|
A|2------2------2------2-----|2------2------2------2-----|
E|0------0------0------0-----|0------0------0------0-----|
Up with a lark Silly I don't
girl know

x X X X
F#7 Am D
e|2----- 2----- 2----- 2-----|0----- 0----- 2----- 2-----|
B|5------5------5------5-----|1------1------3------3-----|
G|3------3------3------3-----|2------2------2------2-----|
D|2------2------2------2-----|2------2------0------0-----|
A|4------4------4------4-----|0------0-------------------|
E|2------2------2------2-----|---------------------------|
what to say She running
was away


G Gmaj7 Em
e|3----- 3----- 3----- 3-----|0----- 0----- 0----- 0-----|
B|3------3------3------3-----|0------0------0------0-----|
G|0------0------0------0-----|0------0------0------0-----|
D|0------0------0------0-----|2------2------2------2-----|
A|2------2------2------2-----|2------2------2------2-----|
E|3------3------2------2-----|0------0------0------0-----|
So now I'm standing corner
on the

xxxxxX
Bm Bbm Am
e|2----- 2----- 1----- 1-----|0----- 0----- 0----- 0-----|
B|3------3------2------2-----|1------1------1------1-----|
G|4------4------3------3-----|2------2------2------2-----|
D|4------4------3------3-----|2------2------2------2-----|
A|2------2------1------1-----|0------2------3------------|
E|---------------------------|---------------------------|
Lost, in the that
things I say


Cm Em Emmaj7
e|3----- 3----- 3----- 3-----|0----- 0----- 0----- 0-----|
B|4------4------4------4-----|0------0------0------0-----|
G|5------5------5------5-----|0------0------0------0-----|
D|5------5------5------5-----|2------2------1------1-----|
A|3------3------3------3-----|2------2------2------2-----|
E|---------------------------|0------0------0------0-----|
What am I supposed to do now


X X x
Em7 F Fmaj7
e|0----- 0----- 1----- 0-----|
B|0------0------1------1-----|
G|0------0------2------2-----|
D|0------0------3------3-----|
A|2------2------3------3-----|
E|0------0------1------1-----|




G Bm
e|3----- 3----- 3----- 3-----|2----- 2----- 2----- 2-----|
B|3------3------3------3-----|3------3------3------3-----|
G|0------0------0------0-----|4------4------4------4-----|
D|0------0------0------0-----|4------4------4------4-----|
A|2------2------2------2-----|2------2------2------2-----|
E|3------3------3------3-----|---------------------------|


xxxxx
C Cmaj7 Am D
e|0----- 0----- 0----- 0-----|0----- 0----- 2----- 2-----|
B|1------1------1------1-----|1------1------3------3-----|
G|0------0------0------0-----|2------2------2------2-----|
D|2------2------2------2-----|2------2------0------0-----|
A|3------3------2------2-----|0------0-------------------|
E|---------------------------|---------------------------|
I can't see you I don't need you



G Bm
e|3----- 3----- 3----- 3-----|2----- 2----- 2----- 2-----|
B|3------3------3------3-----|3------3------3------3-----|
G|0------0------0------0-----|4------4------4------4-----|
D|0------0------0------0-----|4------4------4------4-----|
A|2------2------2------2-----|2------2------2------2-----|
E|3------3------3------3-----|---------------------------|



X x X X X
Am D7sus2 G
e|0----- ------ 0----- ------|3----- ------ ------ ------|
B|1-------------1------------|3--------------------------|
G|2-------------2------------|0--------------------------|
D|2-------------0------------|0--------------------------|
A|0--------------------------|2--------------------------|
E|---------------------------|3--------------------------|
Sure to want me
back another
day

Em Em+5 Em6 Em+5 Em
e|0----- 0----- 0----- 0-----|0----- 0----- 0----- 0-----|
B|0------0------1------1-----|2------2------1------0-----|
G|0------0------0------0-----|0------0------0------0-----|
D|2------2------2------2-----|2------2------2------2-----|
A|2------2------2------2-----|2------2------2------2-----|
E|0------0------0------0-----|0------0------0------0-----|
Gone to the park Overgrowing but the


X X X x x x
F#7 Am
e|2----- 2----- 2----- 2-----|0----- 0----- 0----- 0-----|
B|5------5------5------5-----|1------1------1------1-----|
G|3------3------3------3-----|2------2------2------2-----|
D|2------2------2------2-----|2------2------2------2-----|
A|4------4------4------4-----|0------0------0------0-----|
E|2------2------2------2-----|---------------------------|
trees bare There's
are a memory there


Em Em+5 Em6 Em+5 Em
e|0----- 0----- 0----- 0-----|0----- 0----- 0----- 0-----|
B|0------0------1------1-----|2------2------1------0-----|
G|0------0------0------0-----|0------0------0------0-----|
D|2------2------2------2-----|2------2------2------2-----|
A|2------2------2------2-----|2------2------2------2-----|
E|0------0------0------0-----|0------0------0------0-----|
Boats on Unattended now, they're
the
lake
XX
F#7 Am D
e|2----- 2----- 2----- 2-----|0----- 0----- 2----- 2-----|
B|5------5------5------5-----|1------1------3------3-----|
G|3------3------3------3-----|2------2------2------2-----|
D|2------2------2------2-----|2------2------0------0-----|
A|4------4------4------4-----|0------0-------------------|
E|2------2------2------2-----|---------------------------|
all to drown I'm
incredibly down


G Gmaj7 Em
e|3----- 3----- 3----- 3-----|0----- 0----- 0----- 0-----|
B|3------3------3------3-----|0------0------0------0-----|
G|0------0------0------0-----|0------0------0------0-----|
D|0------0------0------0-----|2------2------2------2-----|
A|2------2------2------2-----|2------2------2------2-----|
E|3------3------2------2-----|0------0------0------0-----|
Just
like myself they
are neglected
xxxxX
Bm Bbm Am
e|2----- 2----- 1----- 1-----|0----- 0----- 0----- 0-----|
B|3------3------2------2-----|1------1------1------1-----|
G|4------4------3------3-----|2------2------2------2-----|
D|4------4------3------3-----|2------2------2------2-----|
A|2------2------1------1-----|0------2------3------------|
E|---------------------------|---------------------------|
Turn, with to
my eyes the war


Cm Em Emmaj7
e|3----- 3----- 3----- 3-----|0----- 0----- 0----- 0-----|
B|4------4------4------4-----|0------0------0------0-----|
G|5------5------5------5-----|0------0------0------0-----|
D|5------5------5------5-----|2------2------1------1-----|
A|3------3------3------3-----|2------2------2------2-----|
E|---------------------------|0------0------0------0-----|
What supposed
am I to do now


x x x X X
Em7 F Fmaj7
e|0----- 0----- 1----- 0-----|
B|0------0------1------1-----|
G|0------0------2------2-----|
D|0------0------3------3-----|
A|2------2------3------3-----|
E|0------0------1------1-----|




G Bm
e|3----- 3----- 3----- 3-----|2----- 2----- 2----- 2-----|
B|3------3------3------3-----|3------3------3------3-----|
G|0------0------0------0-----|4------4------4------4-----|
D|0------0------0------0-----|4------4------4------4-----|
A|2------2------2------2-----|2------2------2------2-----|
E|3------3------3------3-----|---------------------------|



C Cmaj7 Am D
e|0----- 0----- 0----- 0-----|0----- 0----- 2----- 2-----|
B|1------1------1------1-----|1------1------3------3-----|
G|0------0------0------0-----|2------2------2------2-----|
D|2------2------2------2-----|2------2------0------0-----|
A|3------3------2------2-----|0------0-------------------|
E|---------------------------|---------------------------|
I can't see you I don't need you



G Bm
e|3----- 3----- 3----- 3-----|2----- 2----- 2----- 2-----|
B|3------3------3------3-----|3------3------3------3-----|
G|0------0------0------0-----|4------4------4------4-----|
D|0------0------0------0-----|4------4------4------4-----|
A|2------2------2------2-----|2------2------2------2-----|
E|3------3------3------3-----|---------------------------|


x x x x X X X
Am D7sus2 G F E
e|0----- ------ 0----- ------|3----- 1----- 0----- 0-----|
B|1-------------1------------|3------1------0------0-----|
G|2-------------2------------|0------2------1------1-----|
D|2-------------0------------|0------3------2------2-----|
A|0--------------------------|2------3------2------2-----|
E|---------------------------|3------1------0------0-----|
Sure to want me
back another
day
xxxxx
Am Am7 Am6 Fmaj7
e|0----- 0----- 0----- 0-----|0----- 0----- 0----- 0-----|
B|1------1------1------1-----|1------1------1------1-----|
G|2------2------2------2-----|2------2------2------2-----|
D|2------2------2------2-----|2------2------2------2-----|
A|0------0-------------------|---------------------------|
E|--------------3------3-----|2------2------1------1-----|
Oooooo black, Oooooo black, Ooooooooooooooooooooooooooo


X x x x X X
Dm E Am Am7 Fmaj7 E
e|1----- 1----- 0----- 0-----|0----- 0----- 0----- 0-----|
B|3------3------0------0-----|1------1------1------0-----|
G|2------2------1------1-----|2------2------2------1-----|
D|0------0------2------2-----|2------2------2------2-----|
A|---------------------------|0--------------------------|
E|--------------0------0-----|-------3------1------0-----|
Aaaaaahhhhhhh Aaaaaaahhhhhh Aaaaaaaaaaaaahhhhhhh


xxxxx
Am Am7 Am6 Fmaj7
e|0----- 0----- 0----- 0-----|0----- 0----- 0----- 0-----|
B|1------1------1------1-----|1------1------1------1-----|
G|2------2------2------2-----|2------2------2------2-----|
D|2------2------2------2-----|2------2------2------2-----|
A|0------0-------------------|---------------------------|
E|--------------3------3-----|2------2------1------1-----|
Oooooo black, Oooooo black, Ooooooooooooooooooooooooooo


X xxx X X X X x x x
Dm E Am Am7 Fmaj7 E
e|1----- 1----- 0----- 0-----|0----- 0----- 0----- 0-----|
B|3------3------0------0-----|1------1------1------0-----|
G|2------2------1------1-----|2------2------2------1-----|
D|0------0------2------2-----|2------2------2------2-----|
A|---------------------------|0--------------------------|
E|--------------0------0-----|-------3------1------0-----|
Aaaaaahhhhhhh Aaaaaaahhhhhh Aaaaaaaaaaaaahhhhhhh



Em Em+5 Em6 Em+5 Em
e|0----- 0----- 0----- 0-----|0----- 0----- 0----- 0-----|
B|0------0------1------1-----|2------2------1------0-----|
G|0------0------0------0-----|0------0------0------0-----|
D|2------2------2------2-----|2------2------2------2-----|
A|2------2------2------2-----|2------2------2------2-----|
E|0------0------0------0-----|0------0------0------0-----|
Run for the train Look behind you for she


x x x X X X
F#7 Am
e|2----- 2----- 2----- 2-----|0----- 0----- 0----- 0-----|
B|5------5------5------5-----|1------1------1------1-----|
G|3------3------3------3-----|2------2------2------2-----|
D|2------2------2------2-----|2------2------2------2-----|
A|4------4------4------4-----|0------0------0------0-----|
E|2------2------2------2-----|---------------------------|
may be there Say thing
the you're
the girl

Em Em+5 Em6 Em+5 Em
e|0----- 0----- 0----- 0-----|0----- 0----- 0----- 0-----|
B|0------0------1------1-----|2------2------1------0-----|
G|0------0------0------0-----|0------0------0------0-----|
D|2------2------2------2-----|2------2------2------2-----|
A|2------2------2------2-----|2------2------2------2-----|
E|0------0------0------0-----|0------0------0------0-----|
of

xxxxxX
F#7 Am D
e|2----- 2----- 2----- 2-----|0----- 0----- 2----- 2-----|
B|5------5------5------5-----|1------1------3------3-----|
G|3------3------3------3-----|2------2------2------2-----|
D|2------2------2------2-----|2------2------0------0-----|
A|4------4------4------4-----|0------0-------------------|
E|2------2------2------2-----|---------------------------|
care Cast winds
or sins to the

X
G Gmaj7 Em
e|3----- 3----- 3----- 3-----|0----- 0----- 0----- 0-----|
B|3------3------3------3-----|0------0------0------0-----|
G|0------0------0------0-----|0------0------0------0-----|
D|0------0------0------0-----|2------2------2------2-----|
A|2------2------2------2-----|2------2------2------2-----|
E|3------3------2------2-----|0------0------0------0-----|
So full of accidents without her



Bm Bbm Am
e|2----- 2----- 1----- 1-----|0----- 0----- 0----- 0-----|
B|3------3------2------2-----|1------1------1------1-----|
G|4------4------3------3-----|2------2------2------2-----|
D|4------4------3------3-----|2------2------2------2-----|
A|2------2------1------1-----|0------2------3------------|
E|---------------------------|---------------------------|
Lost in the
words that
I said

Cm Em Emmaj7
e|3----- 3----- 3----- 3-----|0----- 0----- 0----- 0-----|
B|4------4------4------4-----|0------0------0------0-----|
G|5------5------5------5-----|0------0------0------0-----|
D|5------5------5------5-----|2------2------1------1-----|
A|3------3------3------3-----|2------2------2------2-----|
E|---------------------------|0------0------0------0-----|
What supposed
am I to do now

xxxxX
Em7 F Fmaj7
e|0----- 0----- 1----- 0-----|
B|0------0------1------1-----|
G|0------0------2------2-----|
D|0------0------3------3-----|
A|2------2------3------3-----|
E|0------0------1------1-----|




G Bm
e|3----- 3----- 3----- 3-----|2----- 2----- 2----- 2-----|
B|3------3------3------3-----|3------3------3------3-----|
G|0------0------0------0-----|4------4------4------4-----|
D|0------0------0------0-----|4------4------4------4-----|
A|2------2------2------2-----|2------2------2------2-----|
E|3------3------3------3-----|---------------------------|


x x X
C Cmaj7 Am D
e|0----- 0----- 0----- 0-----|0----- 0----- 2----- 2-----|
B|1------1------1------1-----|1------1------3------3-----|
G|0------0------0------0-----|2------2------2------2-----|
D|2------2------2------2-----|2------2------0------0-----|
A|3------3------2------2-----|0------0-------------------|
E|---------------------------|---------------------------|
I can't see you I don't need you



C Bm
e|3----- 3----- 3----- 3-----|2----- 2----- 2----- 2-----|
B|3------3------3------3-----|3------3------3------3-----|
G|0------0------0------0-----|4------4------4------4-----|
D|0------0------0------0-----|4------4------4------4-----|
A|2------2------2------2-----|2------2------2------2-----|
E|3------3------3------3-----|---------------------------|


x x x x X x X
Am D7sus2 G F C
e|0----- ------ 0----- ------|3----- ------ 1----- 0-----|
B|1-------------1------------|3-------------1------1-----|
G|2-------------2------------|0-------------2------0-----|
D|2-------------0------------|0-------------3------2-----|
A|0--------------------------|2-------------3------3-----|
E|---------------------------|3-------------1------3-----|
Sure to want me
back another
day

G Bm
e|3----- 3----- 3----- 3-----|2----- 2----- 2----- 2-----|
B|3------3------3------3-----|3------3------3------3-----|
G|0------0------0------0-----|4------4------4------4-----|
D|0------0------0------0-----|4------4------4------4-----|
A|2------2------2------2-----|2------2------2------2-----|
E|3------3------3------3-----|---------------------------|


x x X x
C Cmaj7 Am D
e|0----- 0----- 0----- 0-----|0----- 0----- 2----- 2-----|
B|1------1------1------1-----|1------1------3------3-----|
G|0------0------0------0-----|2------2------2------2-----|
D|2------2------2------2-----|2------2------0------0-----|
A|3------3------2------2-----|0------0-------------------|
E|---------------------------|---------------------------|
I can't see you I don't need you



G Bm
e|3----- 3----- 3----- 3-----|2----- 2----- 2----- 2-----|
B|3------3------3------3-----|3------3------3------3-----|
G|0------0------0------0-----|4------4------4------4-----|
D|0------0------0------0-----|4------4------4------4-----|
A|2------2------2------2-----|2------2------2------2-----|
E|3------3------3------3-----|---------------------------|



x x x x X X
Am D7sus2 G F C
e|0----- ------ 0----- ------|3----- ------ 1----- 0-----|
B|1-------------1------------|3-------------1------1-----|
G|2-------------2------------|0-------------2------0-----|
D|2-------------0------------|0-------------3------2-----|
A|0--------------------------|2-------------3------3-----|
E|---------------------------|3-------------1------3-----|
Sure to want me
back another
day

G Bm
e|3----- 3----- 3----- 3-----|2----- 2----- 2----- 2-----|
B|3------3------3------3-----|3------3------3------3-----|
G|0------0------0------0-----|4------4------4------4-----|
D|0------0------0------0-----|4------4------4------4-----|
A|2------2------2------2-----|2------2------2------2-----|
E|3------3------3------3-----|---------------------------|


xxxxxX
C Cmaj7 Am D
e|0----- 0----- 0----- 0-----|0----- 0----- 2----- 2-----|
B|1------1------1------1-----|1------1------3------3-----|
G|0------0------0------0-----|2------2------2------2-----|
D|2------2------2------2-----|2------2------0------0-----|
A|3------3------2------2-----|0------0-------------------|
E|---------------------------|---------------------------|
I can't see you I don't need you
.........................Fade..........................

X
G Bm
e|3----- 3----- 3----- 3-----|2----- 2----- 2----- 2-----|
B|3------3------3------3-----|3------3------3------3-----|
G|0------0------0------0-----|4------4------4------4-----|
D|0------0------0------0-----|4------4------4------4-----|
A|2------2------2------2-----|2------2------2------2-----|
E|3------3------3------3-----|---------------------------|
.......................................................








B Bend
R Release
/ Slide up
Slide down
H Hammer-on
P Pull-off
~ Vibrato
+ Harmonic
x Mute note
. Play note like a dot in standard notation
^ Ties two notes together
(. Pause

ACORDES PARA GUITARRA

PIANO UKELELE


COMENTARIOS

Aún no hay comentarios,

¡escribe el primero!

Escribe una pregunta, duda o comentario sobre esta canción, te responderemos a la brevedad.

Las más tocadas de The Move

Toca una Canción al Azar de The Move