Flowers In The Rain
The Move
Acordes

Subida por PaoEC1994
Álbum: Move ( 1968)


Más Versiones
Ver. 2 Ver. 3

Cambiar Cifrado
Americano Latino

Cambiar Tonalidad
-1 +1

Partir Pantalla Imprimir FAQ

+A
-A

WE GO ROUND THE LEMON TREE as the B side on September 1967.
It hit number 2 on the UK chart.

------------------------------------------------------------------------

Tabbed by:PJVillanueva





Woke up one morning half asleep
With all my blankets in a heap
And yellow roses scattered all around
The time was still approaching
For I couldn't stand it anymore
Some marigolds upon my eiderdown

*
I'm just sitting watching flowers in the rain
Feel the power of the rain making the garden grow
I'm just sitting watching flowers in the rain
Feel the power of the rain keeping me good

So I lay upon my side
With all the windows open wide
Couldn't pressurize my head from speaking
Hoping not to make a sound
I pushed my bed into the grounds
In time to catch the sight that I was seeking


*


If this perfect pleasure has to be
Then this is paradise to me
If my pillow's getting wet
I can't see that it matters much to me


I heard the flowers in the breeze
Make conversation with the trees
Relieved to leave reality behind me
With my commitments in a mess
My sleep is gone away need rest
In a world of fantasy you'll find me


*

Watching flowers in the rain
Flower in the rain
Power flowers in the rain
Flower power in the rain





12/8



Bsus4... xxxx
Asus2...
e|0----- 0----- 0----- 0-----|0----- 0----- 0----- 0-----|
B|0------0------0------0-----|0------0------0------0-----|
G|2H4----2H4----2H4----2H4---|2H4----2H4----2H4----2H4---|
D|2------2---2--2------2---2-|2---2--2------2---2--2-----|
A|---------------------------|---------------------------|
E|---------------------------|---------------------------|
Woke


X
A Dbm F#m Dbm
e|5----- 5----- 4----- 4-----|2----- 2----- 4----- 4-----|
B|5------5------5------5-----|2------2------5------5-----|
G|6------6------6------6-----|2------2------6------6-----|
D|7------7------6------6-----|4------4------6------6-----|
A|7------7------4------4-----|4------4------4------4-----|
E|5------5-------------------|2------2-------------------|
up one morning
half asleep
With all my blankets in a heap

A Dbm D E
e|5----- 5----- 4----- 4-----|2----- 2----- 0----- 0-----|
B|5------5------5------5-----|3------3------0------0-----|
G|6------6------6------6-----|2------2------1------1-----|
D|7------7------6------6-----|0------0------2------2-----|
A|7------7------4------4-----|--------------2------2-----|
E|5------5-------------------|--------------0------0-----|
Yellow roses scattered
all around The


A Dbm F#m Dbm
e|5----- 5----- 4----- 4-----|2----- 2----- 4----- 4-----|
B|5------5------5------5-----|2------2------5------5-----|
G|6------6------6------6-----|2------2------6------6-----|
D|7------7------6------6-----|4------4------6------6-----|
A|7------7------4------4-----|4------4------4------4-----|
E|5------5-------------------|2------2-------------------|
time was still
approaching For I couldn't
stand it anymore Some

xxx X xxx
A Dbm D E
e|5----- 5----- 4----- 4-----|2----- 2----- 0----- 0-----|
B|5------5------5------5-----|3------3------0------0-----|
G|6------6------6------6-----|2------2------1------1-----|
D|7------7------6------6-----|0------0------2------2-----|
A|7------7------4------4-----|--------------2------2-----|
E|5------5-------------------|--------------0------0-----|
marigolds upon my eiderdown
e|------ ------ ------ ------|------ ------ ------ ------|
B|---------------------------|--------------5------------|
G|---------------------------|7--------------------------|
D|---------------------------|---------------------------|
A|---------------------------|---------------------------|
E|---------------------------|---------------------------|



X
A
e|5----- 5----- 5----- 5-----|5----- 5----- 5----- 5-----|
B|5------5------5------5-----|5------5------5------5-----|
G|6------6------6------6-----|6------6------6------6-----|
D|7------7------7------7-----|7------7------7------7-----|
A|7------7------7------7-----|7------7------7------7-----|
E|5------5------5------5-----|5------5------5------5-----|
I'm just sitting watching
flowers in
the rain Feel the
e|------ 5----- ------ ------|------ 5----- 5----- 5-----|
B|---------5-----------------|---------5------5-----5----|
G|-----------6---------------|-----------6------6------6-|
D|---------------------------|---------------------------|
A|--------------7------------|---------------------------|
E|---------------------------|---------------------------|

e|------ ------ ------ ------|------ ------ ------ ------|
B|---------------------------|---------------------------|
G|---------------------------|---------------------------|
D|---------------------------|---------------------------|
A|7-------------7------------|-------7-------------------|
E|---------------------------|---------------------------|



xxxxX
B E B E
e|5----- 5----- 5----- 2-----|4----- 2----- 4----- 4P0---|
B|5------5------5------4-----|5------4------3------5-----|
G|6------6------6------4-----|4------4------4---4------4-|
D|7------7------7------4-----|-------4-------------------|
A|7------7------7------2-----|-------2-------------------|
E|5------5------5------------|---------------------------|
power of
the rain making
the garden grow
e|------ 5----- 5----- 5-----|4----- 5----- 7----- ------|
B|---------5------5------5---|---------------------------|
G|-----------6------6------6-|---------------------------|
D|---------------------------|---------------------------|
A|---------------------------|---------------------------|
E|---------------------------|---------------------------|

e|------ ------ ------ ------|------ ------ 4----- ------|
B|---------------------7-----|5------7-------------------|
G|---------------------------|---------------------------|
D|---------------------------|---------------------------|
A|---------------------------|---------------------------|
E|---------------------------|---------------------------|




A
e|5----- 5----- 5----- 5-----|5----- 5----- 5----- 5-----|
B|5------5------5------5-----|5------5------5------5-----|
G|6------6------6------6-----|6------6------6------6-----|
D|7------7------7------7-----|7------7------7------7-----|
A|7------7------7------7-----|7------7------7------7-----|
E|5------5------5------5-----|5------5------5------5-----|
I'm just sitting watching
flowers in
the rain Feel the
e|------ 5----- ------ ------|------ 5----- 5----- 5-----|
B|---------5-----------------|---------5------5-----5----|
G|-----------6---------------|-----------6------6------6-|
D|--------------7------------|---------------------------|
A|---------------------------|---------------------------|
E|---------------------------|---------------------------|

e|------ ------ ------ ------|------ ------ ------ ------|
B|5---7--5---7--5------5-----|5---7--5-------------------|
G|---------------------------|--------------6------6-----|
D|---------------------------|---------------------------|
A|---------------------------|---------------------------|
E|---------------------------|---------------------------|



x X X X
B E B E
e|5----- 5----- 5----- 2-----|4----- 2----- 4----- ------|
B|5------5------5------4-----|5------4------3------------|
G|6------6------6------4-----|4------4------4------------|
D|7------7------7------4-----|-------4-------------------|
A|7------7------7------2-----|-------2-------------------|
E|5------5------5------------|---------------------------|
power of
the rain keepìng
me good
e|------ 5----- 5----- 5-----|4----- ------ ------ ------|
B|---------5------5------5---|5------5-------------------|
G|-----------6------6------6-|4--------------------------|
D|---------------------------|---------------------------|
A|---------------------------|---------------------------|
E|---------------------------|---------------------------|

e|------ ------ ------ ------|------ ------ ------ ------|
B|5---7--5---7--5------------|5------7------5------------|
G|---------------------4-----|---------------------------|
D|---------------------------|---------------------------|
A|---------------------------|---------------------------|
E|---------------------------|---------------------------|




A Dbm F#m Dbm
e|5----- 5----- 4----- 4-----|2----- 2----- 4----- 4-----|
B|5------5------5------5-----|2------2------5------5-----|
G|6------6------6------6-----|2------2------6------6-----|
D|7------7------6------6-----|4------4------6------6-----|
A|7------7------4------4-----|4------4------4------4-----|
E|5------5-------------------|2------2-------------------|
So I lay upon my side
With all the
windows open wide

x x x X X X
A Dbm D E
e|5----- 5----- 4----- 4-----|2----- 2----- 0----- 0-----|
B|5------5------5------5-----|3------3------0------0-----|
G|6------6------6------6-----|2------2------1------1-----|
D|7------7------6------6-----|0------0------2------2-----|
A|7------7------4------4-----|--------------2------2-----|
E|5------5-------------------|--------------0------0-----|
Couldn't
pressurize my head from
speaking

A Dbm F#m Dbm
e|5----- 5----- 4----- 4-----|2----- 2----- 4----- 4-----|
B|5------5------5------5-----|2------2------5------5-----|
G|6------6------6------6-----|2------2------6------6-----|
D|7------7------6------6-----|4------4------6------6-----|
A|7------7------4------4-----|4------4------4------4-----|
E|5------5-------------------|2------2-------------------|
Hoping not to make
a sound I pushed
my bed into the
grounds In
e|------ ------ ------ ------|------ ------ ------ ------|
B|-----------10-9------------|---------------------------|
G|---------------------------|11---------11-9------------|
D|---------------------------|---------------------------|
A|---------------------------|---------------------------|
E|---------------------------|---------------------------|



xxxxX xxxx
A Dbm D E
e|5----- 5----- 4----- 4-----|2----- 2----- 0----- 0-----|
B|5------5------5------5-----|3------3------0------0-----|
G|6------6------6------6-----|2------2------1------1-----|
D|7------7------6------6-----|0------0------2------2-----|
A|7------7------4------4-----|--------------2------2-----|
E|5------5-------------------|--------------0------0-----|
time
to catch
the sight that
I was seeking
e|------ ------ ------ ------|------ --9-10 12---- ------|
B|-----------10-9------------|--9-10-12--------------7-9-|
G|---------------------------|11-------------------9-----|
D|---------------------------|---------------------------|
A|---------------------------|---------------------------|
E|---------------------------|---------------------------|



X
A
e|5----- 5----- 5----- 5-----|5----- 5----- 5----- 5-----|
B|5------5------5------5-----|5------5------5------5-----|
G|6------6------6------6-----|6------6------6------6-----|
D|7------7------7------7-----|7------7------7------7-----|
A|7------7------7------7-----|7------7------7------7-----|
E|5------5------5------5-----|5------5------5------5-----|
I'm just sitting watching
flowers in
the rain Feel the
e|------ 5----- ------ ------|------ 5----- 5----- 5-----|
B|---------5-----------------|---------5------5-----5----|
G|-----------6---------------|-----------6------6------6-|
D|---------------------------|---------------------------|
A|--------------7------------|---------------------------|
E|---------------------------|---------------------------|

e|------ ------ ------ ------|------ ------ ------ ------|
B|---------------------------|---------------------------|
G|---------------------------|---------------------------|
D|---------------------------|---------------------------|
A|7----------7-------------7-|-------7-------------------|
E|---------------------------|---------------------------|



x x XXXX
B E B E
e|5----- 5----- 5----- 2-----|4----- 2----- 4----- 4P0---|
B|5------5------5------4-----|5------4------3------5-----|
G|6------6------6------4-----|4------4------4---4------4-|
D|7------7------7------4-----|-------4-------------------|
A|7------7------7------2-----|-------2-------------------|
E|5------5------5------------|---------------------------|
power of
the rain making
the garden grow
e|------ 5----- 5----- 5-----|4----- 5----- 7----- ------|
B|---------5------5------5---|---------------------------|
G|-----------6------6------6-|---------------------------|
D|---------------------------|---------------------------|
A|---------------------------|---------------------------|
E|---------------------------|---------------------------|

e|------ ------ ------ ------|------ ------ 4----- ------|
B|---------------------7-----|5------7-------------------|
G|---------------------------|---------------------------|
D|---------------------------|---------------------------|
A|---------------------------|---------------------------|
E|---------------------------|---------------------------|




A
e|5----- 5----- 5----- 5-----|5----- 5----- 5----- 5-----|
B|5------5------5------5-----|5------5------5------5-----|
G|6------6------6------6-----|6------6------6------6-----|
D|7------7------7------7-----|7------7------7------7-----|
A|7------7------7------7-----|7------7------7------7-----|
E|5------5------5------5-----|5------5------5------5-----|
I'm just sitting watching
flowers in
the rain Feel the
e|------ 5----- ------ ------|------ 5----- 5----- 5-----|
B|---------5-----------------|---------5------5-----5----|
G|-----------6---------------|-----------6------6------6-|
D|--------------7------------|---------------------------|
A|---------------------------|---------------------------|
E|---------------------------|---------------------------|

e|------ ------ ------ ------|------ ------ ------ ------|
B|5---7--5---7--5------5-----|5---7--5-------------------|
G|---------------------------|--------------6------6-----|
D|---------------------------|---------------------------|
A|---------------------------|---------------------------|
E|---------------------------|---------------------------|



x x x x
B E B E
e|5----- 5----- 5----- 2-----|4----- 2----- 4----- ------|
B|5------5------5------4-----|5------4------3------------|
G|6------6------6------4-----|4------4------4------------|
D|7------7------7------4-----|-------4-------------------|
A|7------7------7------2-----|-------2-------------------|
E|5------5------5------------|---------------------------|
power of
the rain keepìng
me good
e|------ 5----- 5----- 5-----|4----- ------ ------ ------|
B|---------5------5------5---|5------5-------------------|
G|-----------6------6------6-|4--------------------------|
D|---------------------------|---------------------------|
A|---------------------------|---------------------------|
E|---------------------------|---------------------------|

e|------ ------ ------ ------|------ ------ ------ ------|
B|5---7--5---7--5------------|5------7------5------------|
G|---------------------4-----|---------------------------|
D|---------------------------|---------------------------|
A|---------------------------|---------------------------|
E|---------------------------|---------------------------|




x x x x x
A
e|5----- 5----- 5----- 5-----|
B|5------5------5------5-----|
G|6------6------6------6-----|
D|7------7------7------7-----|
A|7------7------7------7-----|
E|5------5------5------5-----|

e|------ ------ ------ ------|
B|5--------------------------|
G|---------------------------|
D|---------------------------|
A|---------------------------|
E|---------------------------|




D A
e|2----- 2----- 2----- 2-----|0----- 0----- 0----- 0-----|
B|3------3------3------3-----|2------2------2------2-----|
G|2------2------2------2-----|2------2------2------2-----|
D|0------0------0------0-----|2------2------2------2-----|
A|---------------------------|0------0------0------0-----|
E|---------------------------|---------------------------|
If this
perfect pleasure
has to be Then this is
paradise to me

e|------ ------ 17---- ------|------ ------ 17---- ------|
B|-------15------------------|-------14------------------|
G|---------------------------|---------------------------|
D|---------------------------|---------------------------|
A|---------------------------|---------------------------|
E|---------------------------|---------------------------|




Bm A G Em A
e|2----- 2----- 0----- 0-----|3----- 3----- 0----- 0-----|
B|3------3------2------2-----|3------3------0------2-----|
G|4------4------2------2-----|4------4------0------2-----|
D|4------4------2------2-----|5------5------2------2-----|
A|2------2------0------0-----|5------5------2------0-----|
E|---------------------------|3------3------0------------|
If my pillow's
getting wet I can't see
that it matters
much to
e|19---- ------ 17---- ------|15---- ------ 15---- 17----|
B|---------------------------|---------------------------|
G|---------------------------|---------------------------|
D|---------------------------|---------------------------|
A|---------------------------|---------------------------|
E|---------------------------|---------------------------|



xxxx
D D7
e|2----- 2----- 2----- 2-----|------ 4P0--- 4P0--- 4-----|
B|3------3------3------3-----|----3--3---3--3---3--3-----|
G|2------2------2------2-----|-------4------4------4-----|
D|0------0------0------0-----|---------------------------|
A|---------------------------|---------------------------|
E|---------------------------|---------------------------|
me I
e|------ ------ ------ ------|4-0--- 4-0--- 4-0--- 4-0---|
B|---------------------------|----3------3------3------3-|
G|---------------------------|---------------------------|
D|---------------------------|---------------------------|
A|---------------------------|---------------------------|
E|---------------------------|---------------------------|

e|14---- ------ ------ ------|------ ------ ------ ------|
B|---------------------------|---------------------------|
G|---------------------------|---------------------------|
D|---------------------------|---------------------------|
A|---------------------------|---------------------------|
E|---------------------------|---------------------------|



X
A Dbm F#m Dbm
e|5----- 5----- 4----- 4-----|2----- 2----- 4----- 4-----|
B|5------5------5------5-----|2------2------5------5-----|
G|6------6------6------6-----|2------2------6------6-----|
D|7------7------6------6-----|4------4------6------6-----|
A|7------7------4------4-----|4------4------4------4-----|
E|5------5-------------------|2------2-------------------|
heard the
flowers in
the breeze
Make conversation with
the
trees Re..
x x x X X X
A Dbm D E
e|5----- 5----- 4----- 4-----|2----- 2----- 0----- 0-----|
B|5------5------5------5-----|3------3------0------0-----|
G|6------6------6------6-----|2------2------1------1-----|
D|7------7------6------6-----|0------0------2------2-----|
A|7------7------4------4-----|--------------2------2-----|
E|5------5-------------------|--------------0------0-----|
lieved
to leave reality behind me With
e|------ ------ ------ ------|------ ------ 12---- ------|
B|----14------------14-------|-------121415--------------|
G|14-----14-----13-----13----|111314---------------------|
D|---------------------------|---------------------------|
A|---------------------------|---------------------------|
E|---------------------------|---------------------------|




A Dbm F#m Dbm
e|5----- 5----- 4----- 4-----|2----- 2----- 4----- 4-----|
B|5------5------5------5-----|2------2------5------5-----|
G|6------6------6------6-----|2------2------6------6-----|
D|7------7------6------6-----|4------4------6------6-----|
A|7------7------4------4-----|4------4------4------4-----|
E|5------5-------------------|2------2-------------------|
my commitments
in a mess My sleep is
gone
away need rest

xxxxX xxxx
A Dbm D E
e|5----- 5----- 4----- 4-----|2----- 2----- 0----- 0-----|
B|5------5------5------5-----|3------3------0------0-----|
G|6------6------6------6-----|2------2------1------1-----|
D|7------7------6------6-----|0------0------2------2-----|
A|7------7------4------4-----|--------------2------2-----|
E|5------5-------------------|--------------0------0-----|
In a world of fantasy you'll find me
e|------ ------ ------ ------|------ ------ ------ ------|
B|---------------------------|---------------------------|
G|---------------------------|7------6------4------------|
D|---------------------------|---------------------------|
A|---------------------------|---------------------------|
E|---------------------------|---------------------------|



X
A
e|5----- 5----- 5----- 5-----|5----- 5----- 5----- 5-----|
B|5------5------5------5-----|5------5------5------5-----|
G|6------6------6------6-----|6------6------6------6-----|
D|7------7------7------7-----|7------7------7------7-----|
A|7------7------7------7-----|7------7------7------7-----|
E|5------5------5------5-----|5------5------5------5-----|
I'm just sitting watching
flowers in
the rain Feel the
e|------ 5----- ------ ------|------ 5----- 5----- 5-----|
B|---------5-----------------|---------5------5-----5----|
G|-----------6---------------|-----------6------6------6-|
D|--------------7------------|---------------------------|
A|---------------------------|---------------------------|
E|---------------------------|---------------------------|

e|------ ------ ------ ------|------ ------ ------ ------|
B|---------------------------|---------------------------|
G|9-------------9------------|9--------------------------|
D|---------------------------|---------------------------|
A|7-------------7------------|7--------------------------|
E|---------------------------|---------------------------|



xxxxX
B E B E
e|5----- 5----- 5----- 2-----|4----- 2----- 4----- 4P0---|
B|5------5------5------4-----|5------4------3------5-----|
G|6------6------6------4-----|4------4------4---4------4-|
D|7------7------7------4-----|-------4-------------------|
A|7------7------7------2-----|-------2-------------------|
E|5------5------5------------|---------------------------|
power of
the rain making
the garden grow
e|------ 5----- 5----- 5-----|4----- 5----- 7----- ------|
B|---------5------5------5---|---------------------------|
G|-----------6------6------6-|---------------------------|
D|---------------------------|---------------------------|
A|---------------------------|---------------------------|
E|---------------------------|---------------------------|

e|------ ------ ------ ------|------ ------ ------ ------|
B|---------------------------|-------7------9------------|
G|--------------9------------|9--------------------------|
D|---------------------9-----|---------------------------|
A|--------------7------------|---------------------------|
E|---------------------------|---------------------------|




A
e|5----- 5----- 5----- 5-----|5----- 5----- 5----- 5-----|
B|5------5------5------5-----|5------5------5------5-----|
G|6------6------6------6-----|6------6------6------6-----|
D|7------7------7------7-----|7------7------7------7-----|
A|7------7------7------7-----|7------7------7------7-----|
E|5------5------5------5-----|5------5------5------5-----|
I'm just sitting watching
flowers in
the rain Feel the
e|------ 5----- ------ ------|------ 5----- 5----- 5-----|
B|---------5-----------------|---------5------5-----5----|
G|-----------6---------------|-----------6------6------6-|
D|--------------7------------|---------------------------|
A|---------------------------|---------------------------|
E|---------------------------|---------------------------|

e|------ ------ ------ ------|------ ------ ------ ------|
B|5---7--5---7--5------5-----|5---7--5-------------------|
G|---------------------------|--------------6------6-----|
D|---------------------------|---------------------------|
A|---------------------------|---------------------------|
E|---------------------------|---------------------------|



xxxxX xxxx
B E B E
e|5----- 5----- 5----- 2-----|4----- 2----- 4----- ------|
B|5------5------5------4-----|5------4------3------------|
G|6------6------6------4-----|4------4------4------------|
D|7------7------7------4-----|-------4-------------------|
A|7------7------7------2-----|-------2-------------------|
E|5------5------5------------|---------------------------|
power of
the rain keepìng
me good
e|------ 5----- 5----- 5-----|4----- ------ ------ ------|
B|---------5------5----5-----|5------5-------------------|
G|-----------6------6--6-----|4--------------------------|
D|---------------------------|---------------------------|
A|---------------------------|---------------------------|
E|---------------------------|---------------------------|

e|------ ------ ------ ------|------ ------ ------ ------|
B|5---7--5---7--5------------|5------7------5------------|
G|---------------------4-----|---------------------------|
D|---------------------------|---------------------------|
A|---------------------------|---------------------------|
E|---------------------------|---------------------------|



X x X X X
A G A
e|5----- 5----- 3----- 3-----|5----- 5----- 5----- 5-----|
B|5------5------3------3-----|5------5------5------5-----|
G|6------6------4------4-----|6------6------6------6-----|
D|7------7------5------5-----|7------7------7------7-----|
A|7------7------5------5-----|7------7------7------7-----|
E|5------5------3------3-----|5------5------5------5-----|
Watching
flowers
in the rain
e|------ ------ ------ ------|------ ------ ------ ------|
B10-------------8------------|---------------------------|
G|9-------------9------------|9--------------------------|
D|---------------------------11--------------------------|
A|---------------------------|---------------------------|
E|---------------------------|---------------------------|



x x X x X x X x X X X
A G A
e|5----- 5----- 3----- 3-----|5----- 5----- 5----- 5-----|
B|5------5------3------3-----|5------5------5------5-----|
G|6------6------4------4-----|6------6------6------6-----|
D|7------7------5------5-----|7------7------7------7-----|
A|7------7------5------5-----|7------7------7------7-----|
E|5------5------3------3-----|5------5------5------5-----|
Flower
in the rain
e|------ ------ ------ ------|------ ------ ------ ------|
B10-------------8------------|---------------------------|
G|--------------9------------|9--------------------------|
D|---------------------------11--------------------------|
A|---------------------------|---------------------------|
E|---------------------------|---------------------------|



xxxxX xxxxX xxxxX x X
A G A
e|5----- 5----- 3----- 3-----|5----- 5----- 5----- 5-----|
B|5------5------3------3-----|5------5------5------5-----|
G|6------6------4------4-----|6------6------6------6-----|
D|7------7------5------5-----|7------7------7------7-----|
A|7------7------5------5-----|7------7------7------7-----|
E|5------5------3------3-----|5------5------5------5-----|
Power
flowers
in the rain
e|------ ------ ------ ------|------ ------ ------ ------|
B10-------------8------------|---------------------------|
G|--------------9------------|9--------------------------|
D|---------------------------11--------------------------|
A|---------------------------|---------------------------|
E|---------------------------|---------------------------|

e|------ ------ ------ ------|------ ------ ------ ------|
B|--------------8-8----------|--------------7------------|
G|-----------9------9--7-6---|---------------------------|
D|---------------------------|7--------------------------|
A|---------------------------|---------------------------|
E|---------------------------|---------------------------|



x X x X x X x
A G A
e|5----- 5----- 3----- 3-----|5----- 5----- 5----- 5-----|
B|5------5------3------3-----|5------5------5------5-----|
G|6------6------4------4-----|6------6------6------6-----|
D|7------7------5------5-----|7------7------7------7-----|
A|7------7------5------5-----|7------7------7------7-----|
E|5------5------3------3-----|5------5------5------5-----|
Flower
power
in the rain
e|------ ------ ------ ------|------ ------ ------ ------|
B10-------------8------------|---------------------------|
G|--------------9------------|9--------------------------|
D|---------------------------11--------------------------|
A|---------------------------|---------------------------|
E|---------------------------|---------------------------|

e|------ ------ 9--12- 10--9-|------ ------ 9---10 ------|
B|-------121112--------------|12-10----------------------|
G|---------------------------|---------------------------|
D|---------------------------|---------------------------|
A|---------------------------|---------------------------|
E|---------------------------|---------------------------|



X x x x x x X X X X X X
A G A
e|5----- 5----- 3----- 3-----|5----- 5----- 5----- 5-----|
B|5------5------3------3-----|5------5------5------5-----|
G|6------6------4------4-----|6------6------6------6-----|
D|7------7------5------5-----|7------7------7------7-----|
A|7------7------5------5-----|7------7------7------7-----|
E|5------5------3------3-----|5------5------5------5-----|

e|------ ------ ------ ------|------ ------ ------ ------|
B10-------------8------------|---------------------------|
G|--------------9------------|9--------------------------|
D|---------------------------11--------------------------|
A|---------------------------|---------------------------|
E|---------------------------|---------------------------|

e|12---- ------ ------ ------|9----- ----12 10---- ------|
B|---------------------------|---------------------------|
G|---------------------------|---------------------------|
D|---------------------------|---------------------------|
A|---------------------------|---------------------------|
E|---------------------------|---------------------------|
..........................Fade.........................








B Bend
R Release
/ Slide up
Slide down
H Hammer-on
P Pull-off
~ Vibrato
+ Harmonic
x Mute note
. Play note like a dot in standard notation
^ Ties two notes together
(. Pause

ACORDES PARA GUITARRA

PIANO UKELELE


COMENTARIOS

Aún no hay comentarios,

¡escribe el primero!

Escribe una pregunta, duda o comentario sobre esta canción, te responderemos a la brevedad.

Las más tocadas de The Move

Toca una Canción al Azar de The Move