I Can Hear The Grass Grow
The Move
Acordes

Subida por robertoara


Más Versiones
Ver. 2

Cambiar Cifrado
Americano Latino

Cambiar Tonalidad
-1 +1

Partir Pantalla Imprimir FAQ

+A
-A


Ver solo la LETRA

with WAVE YOUR FLAG AND STOP THE TRAIN as the B side
April 1967. It hit number 5 in the UK chart.

------------------------------------------------------------------

Tabbed by:PJVillanueva






See the people all in line, what's making them look at me?
I can't imagine that their minds are thinking the same as me
I can hear the grass grow, I can hear the grass grow
I see rainbows in the evening

My head's attracted to a magnetic wave of sound
With a stream of coloured circles making their way around
I can hear the grass grow, I can hear the grass grow
I see rainbows in the evening

Can't seem to puzzle out the signs
My senses form a micro-line
So get a hold of yourself, now baby
You see I need you to help, now baby
Get a hold of yourself, now baby

Put your head down to the ground and listen to your mind
If you can't spell what you find then I'll know that you're not
my kind
I can hear the grass grow, I can hear the grass grow
I see rainbows in the evening

Can't seem to puzzle out the signs
My senses form a micro-line
So get a hold of yourself, now baby
You see I need you to help, now baby
Get a hold of yourself, now baby

See the people all in line, what's making them look at me?
I can't imagine that their minds are thinking the same like me
I can hear the grass grow, I can hear the grass grow
I see rainbows in the evening

I can hear the grass grow, I can hear the grass grow
I see rainbows in the evening
I can hear the grass grow, I can hear the grass grow
I see rainbows in the evening




tune E string down to D for the bass part.





e|------- ------- ------- -------|------- ------- ------- -------|
B|-------------------------------|-------------------------------|
G|-------------------------------|-------------------------------|
D|-------------------------------|-------------------------------|
A|-------------------------------|-------------------------------|
E|-------------------------------|7---9---7---9---4---5---2---4--|

e|------- ------- ------- -------|------- ------- ------- -------|
B|-------------------------------|-------------------------------|
G|-------------------------------|------------------------------11
D|-------------------------------|------------------------------0|
A|-------------------------------|-------------------------------|
E|-------------------------------|-------------------------------|





e|------- ------- ------- -------|------- ------- ------- -------|
B|-------------------------------|-------------------------------|
G|-------------------------------|-------------------------------|
D|-------------------------------|-------------------------------|
A|--------5---------------5------|--------5---------------5------|
E|0---0-----------0---0-------0--|0---0-----------0---0-------0--|

e|2---2-- 2------ 2------ 2------|2---2-- 2------ ------- -------|
B|3---3---3-------3-------3------|3---3---3----------------------|
G|2---2---2-------2-------2------|2---2---2----------------------|
D|0---0---0-------0-------0------|0---0---0----------------------|
A|-------------------------------|-------------------------------|
E|-------------------------------|-------------------------------|
D
e|------- ------- ------- -------|------- ------- ------- -------|
B|-------------------------------|-------------------------------|
G|11--11--12--11--12B14R1211--9--|11B12R119---7---9-B-11---------|
D|0---0---0---0---0-------0---0--|0-------0---0---0--------------|
A|-------------------------------|-------------------------------|
E|-------------------------------|-------------------------------|

e|------- ------- ------- -------|------- ------- ------- -------|
B|10------12--10--12B13R1210--8--|10B12R108---7---8-B-10---------|
G|-------------------------------|-------------------------------|
D|-------------------------------|-------------------------------|
A|-------------------------------|-------------------------------|
E|-------------------------------|-------------------------------|





e|------- ------- ------- -------|------- ------- ------- -------|
B|-------------------------------|-------------------------------|
G|-------------------------------|-------------------------------|
D|-------------------------------|-------------------------------|
A|--------5---------------5------|-------------------------------|
E|0---0-----------0---0-------0--|0---0---0---7---4---5---2---4--|

e|2---2-- 2------ 2------ 2------|2---2-- ------- ------- -------|
B|3---3---3-------3-------3------|3---3--------------------------|
G|2---2---2-------2-------2------|2---2--------------------------|
D|0---0---0-------0-------0------|0---0--------------------------|
A|-------------------------------|-------------------------------|
E|-------------------------------|-------------------------------|

e|------- ------- ------- -------|------- ------- ------- -------|
B|-------------------------------|-------------------------------|
G|11------12--11--12B14R1211--9--|11-----------------------------|
D|0-------0---0---0-------0---0--|0------------------------------|
A|-------------------------------|-------------------------------|
E|-------------------------------|-------------------------------|

e|------- ------- ------- -------|------- ------- ------- -------|
B|10------12--10--12B13R1210--8--|10-----------------------------|
G|-------------------------------|-------------------------------|
D|-------------------------------|-------------------------------|
A|-------------------------------|-------------------------------|
E|-------------------------------|-------------------------------|





e|------- ------- ------- -------|------- ------- ------- -------|
B|-------------------------------|-------------------------------|
G|-------------------------------|-------------------------------|
D|-------------------------------|-------------------------------|
A|--------5---------------5------|--------5---------------5------|
E|0---0-----------0---0-------0--|0---0-----------0---0-------0--|
See the people all in line, what's
e|2---2-- 2------ 2------ 2------|2---2-- 2------ 2------ 2------|
B|3---3---3-------3-------3------|3---3---3-------3-------3------|
G|2---2---2-------2-------2------|2---2---2-------2-------2------|
D|0---0---0-------0-------0------|0---0---0-------0-------0------|
A|-------------------------------|-------------------------------|
E|-------------------------------|-------------------------------|

e|------- 2------ ------- 2------|------- 2------ ------- 3------|
B|--------3---------------3------|--------3---------------3------|
G|--------2---------------2------|--------2---------------2------|
D|--------0---------------0------|--------0---------------0------|
A|-------------------------------|-------------------------------|
E|-------------------------------|-------------------------------|
D Dsus4




e|------- ------- ------- -------|------- ------- ------- -------|
B|-------------------------------|-------------------------------|
G|-------------------------------|-------------------------------|
D|-------------------------------|-------------------------------|
A|--------5---------------5------|-------------------------------|
E|0---0-----------0---0-------0--|0---0---0---7---4---5---2---4--|
making them look at me?
e|2---2-- 2------ 2------ 2------|2---2-- 2------ 2---2-- 2---2--|
B|3---3---3-------3-------3------|3---3---3-------3---3---3---3--|
G|2---2---2-------2-------2------|2---2---2-------2---2---2---2--|
D|0---0---0-------0-------0------|0---0---0-------0---0---0---0--|
A|-------------------------------|-------------------------------|
E|-------------------------------|-------------------------------|

e|------- 2------ ------- 3------|------- 2------ ------- -------|
B|--------3---------------3------|--------3----------------------|
G|--------2---------------2------|--------2----------------------|
D|--------0---------------0------|--------0----------------------|
A|-------------------------------|-------------------------------|
E|-------------------------------|-------------------------------|
D Dsus4 D




e|------- ------- ------- -------|------- ------- ------- -------|
B|-------------------------------|-------------------------------|
G|-------------------------------|-------------------------------|
D|-------------------------------|-------------------------------|
A|--------5---------------5------|--------5---------------5------|
E|0---0-----------0---0-------0--|0---0-----------0---0-------0--|
I can't imagine that their minds are
e|2---2-- 2------ 2------ 2------|2---2-- 2------ 2------ 2------|
B|3---3---3-------3-------3------|3---3---3-------3-------3------|
G|2---2---2-------2-------2------|2---2---2-------2-------2------|
D|0---0---0-------0-------0------|0---0---0-------0-------0------|
A|-------------------------------|-------------------------------|
E|-------------------------------|-------------------------------|

e|------- 2------ ------- 2------|------- 2------ ------- 3------|
B|--------3---------------3------|--------3---------------3------|
G|--------2---------------2------|--------2---------------2------|
D|--------0---------------0------|--------0---------------0------|
A|-------------------------------|-------------------------------|
E|-------------------------------|-------------------------------|
Dsus4




e|------- ------- ------- -------|------- ------- ------- -------|
B|-------------------------------|-------------------------------|
G|-------------------------------|-------------------------------|
D|-------------------------------|-------------------------------|
A|--------5---------------5------|-------------------------------|
E|0---0-----------0---0-------0--|0---0---0---7---4---5---2---4--|
thinking the same as me
e|2---2-- 2------ 2---2-- 2------|2------ 2---2-- 2------ 2---2--|
B|3---3---3-------3---3---3------|3-------3---3---3-------3---3--|
G|2---2---2-------2---2---2------|2-------2---2---2-------2---2--|
D|0---0---0-------0---0---0------|0-------0---0---0-------0---0--|
A|-------------------------------|-------------------------------|
E|-------------------------------|-------------------------------|

e|------- 2------ ------- 3------|------- 2------ ------- -------|
B|--------3---------------3------|--------3----------------------|
G|--------2---------------2------|--------2----------------------|
D|--------0---------------0------|--------0----------------------|
A|-------------------------------|-------------------------------|
E|-------------------------------|-------------------------------|
D Dsus4 D




e|------- ------- ------- -------|------- ------- ------- -------|
B|-------------------------------|-------------------------------|
G|-------------------------------|-------------------------------|
D|-------------------------------|-------------------------------|
A|-------------------------------|-------------------------------|
E|5---5-------5---5---5-------5--|4---4-------4---4---4-------4--|
I can hear the grass grow,
e|------- 3------ ------- 3------|------- 2------ ------- 2------|
B|--------3---------------3------|--------3---------------3------|
G|--------0---------------0------|--------4---------------4------|
D|--------0---------------0------|--------4---------------4------|
A|--------2---------------2------|--------2---------------2------|
E|--------3---------------3------|-------------------------------|
G Bm
e|------- 3------ ------- 3------|------- 3------ ------- 3------|
B|--------3---------------3------|--------3---------------3------|
G|--------0---------------0------|--------0---------------0------|
D|--------0---------------0------|--------4---------------4------|
A|-------------------------------|-------------------------------|
E|-------------------------------|-------------------------------|
Gmaj7




e|------- ------- ------- -------|------- ------- ------- -------|
B|-------------------------------|-------------------------------|
G|-------------------------------|-------------------------------|
D|-------------------------------|-------------------------------|
A|-------------------------------|-------------------------------|
E|2---2-------2---2---2---2---2--|4---4-------4---5---5-------5--|
I can hear the grass grow,
e|------- 0------ ------- 0------|------- 2------ ------- 3------|
B|--------0---------------0------|--------3---------------3------|
G|--------0---------------0------|--------4---------------0------|
D|--------2---------------2------|--------4---------------0------|
A|--------2---------------2------|--------2---------------2------|
E|--------0---------------0------|------------------------3------|
Em Bm G
e|------- 3------ ------- 3------|------- 3------ ------- 3------|
B|--------3---------------3------|--------3---------------3------|
G|--------0---------------0------|--------0---------------0------|
D|--------2---------------2------|--------4---------------0------|
A|-------------------------------|-------------------------------|
E|-------------------------------|-------------------------------|
G6 Gmaj7 G




e|------- ------- ------- -------|------- ------- ------- -------|
B|-------------------------------|-------------------------------|
G|-------------------------------|-------------------------------|
D|-------------------------------|-------------------------------|
A|-------------------------------|-------------------------------|
E|7---7---7---7---7---7---7---7--|7---7---7---7---7---7---7---7--|
I see rainbows in the evening
e|5---5-- 5---5-- 5---5-- 5---5--|5---5-- 5---5-- 5---5-- 5---5--|
B|5---5---5---5---5---5---5---5--|5---5---5---5---5---5---5---5--|
G|6---6---6---6---6---6---6---6--|6---6---6---6---6---6---6---6--|
D|7---7---7---7---7---7---7---7--|7---7---7---7---7---7---7---7--|
A|0---0---0---0---0---0---0---0--|0---0---0---0---0---0---0---0--|
E|-------------------------------|-------------------------------|
A
e|9---9-- 9---9-- 9---9-- 9---9--|9---9-- 9---9-- 9---9-- 9---9--|
B|10--10--10--10--10--10--10--10-|10--10--10--10--10--10--10--10-|
G|9---9---9---9---9---9---9---9--|9---9---9---9---9---9---9---9--|
D|11--11--11--11--11--11--11--11-|11--11--11--11--11--11--11--11-|
A|-------------------------------|-------------------------------|
E|-------------------------------|-------------------------------|





e|------- ------- ------- -------|
B|-------------------------------|
G|-------------------------------|
D|-------------------------------|
A|-------------------------------|
E|7---9---7---9---4---5---2---4--|

e|5---5-- 5---5-- 5---5-- 5---5--|
B|5---5---5---5---5---5---5---5--|
G|6---6---6---6---6---6---6---6--|
D|7---7---7---7---7---7---7---7--|
A|0---0---0---0---0---0---0---0--|
E|-------------------------------|

e|9---9-- 9---9-- 9---9-- 9---9--|
B|10--10--10--10--10--10--10--10-|
G|9---9---9---9---9---9---9---9--|
D|11--11--11--11--11--11--11--11-|
A|-------------------------------|
E|-------------------------------|





e|------- ------- ------- -------|------- ------- ------- -------|
B|-------------------------------|-------------------------------|
G|-------------------------------|-------------------------------|
D|-------------------------------|-------------------------------|
A|--------5---------------5------|--------5---------------5------|
E|0---0-----------0---0-------0--|0---0-----------0---0-------0--|
My head's attracted to a magnetic
e|2---2-- 2------ 2------ 2------|2---2-- 2------ 2------ 2------|
B|3---3---3-------3-------3------|3---3---3-------3-------3------|
G|2---2---2-------2-------2------|2---2---2-------2-------2------|
D|0---0---0-------0-------0------|0---0---0-------0-------0------|
A|-------------------------------|-------------------------------|
E|-------------------------------|-------------------------------|
D
e|------- 2------ ------- 2------|------- 2------ ------- 3------|
B|--------3---------------3------|--------3---------------3------|
G|--------2---------------2------|--------2---------------2------|
D|--------0---------------0------|--------0---------------0------|
A|-------------------------------|-------------------------------|
E|-------------------------------|-------------------------------|
Dsus4




e|------- ------- ------- -------|------- ------- ------- -------|
B|-------------------------------|-------------------------------|
G|-------------------------------|-------------------------------|
D|-------------------------------|-------------------------------|
A|--------5---------------5------|-------------------------------|
E|0---0-----------0---0-------0--|0---0---0---7---4---5---2---4--|
wave of sound
e|2---2-- 2------ 2------ 2------|2---2-- 2------ 2---2-- 2---2--|
B|3---3---3-------3-------3------|3---3---3-------3---3---3---3--|
G|2---2---2-------2-------2------|2---2---2-------2---2---2---2--|
D|0---0---0-------0-------0------|0---0---0-------0---0---0---0--|
A|-------------------------------|-------------------------------|
E|-------------------------------|-------------------------------|

e|------- 2------ ------- 3------|------- 2------ ----2-- 2---2--|
B|--------3---------------3------|--------3-----------3---3---3--|
G|--------2---------------2------|--------2-----------2---2---2--|
D|--------0---------------0------|--------0-----------0---0---0--|
A|-------------------------------|-------------------------------|
E|-------------------------------|-------------------------------|
D Dsus4 D




e|------- ------- ------- -------|------- ------- ------- -------|
B|-------------------------------|-------------------------------|
G|-------------------------------|-------------------------------|
D|-------------------------------|-------------------------------|
A|--------5---------------5------|--------5---------------5------|
E|0---0-----------0---0-------0--|0---0-----------0---0-------0--|
With a stream of coloured circles
e|2---2-- 2------ 2------ 2------|2---2-- 2------ 2------ 2------|
B|3---3---3-------3-------3------|3---3---3-------3-------3------|
G|2---2---2-------2-------2------|2---2---2-------2-------2------|
D|0---0---0-------0-------0------|0---0---0-------0-------0------|
A|-------------------------------|-------------------------------|
E|-------------------------------|-------------------------------|

e|------- 2------ ------- 2------|------- 2------ ------- 3------|
B|--------3---------------3------|--------1---------------1------|
G|--------2---------------2------|--------2---------------2------|
D|--------0---------------0------|--------0---------------0------|
A|-------------------------------|-------------------------------|
E|-------------------------------|-------------------------------|
D7 D7sus4




e|------- ------- ------- -------|------- ------- ------- -------|
B|-------------------------------|-------------------------------|
G|-------------------------------|-------------------------------|
D|-------------------------------|-------------------------------|
A|--------5---------------5------|-------------------------------|
E|0---0-----------0---0-------0--|0---0---0---7---4---5---2---4--|
making their way around
e|2---2-- 2------ 2---2-- 2------|2---2-- 2---2-- 2---2-- 2---2--|
B|3---3---3-------3---3---3------|3---3---3---3---3---3---3---3--|
G|2---2---2-------2---2---2------|2---2---2---2---2---2---2---2--|
D|0---0---0-------0---0---0------|0---0---0---0---0---0---0---0--|
A|-------------------------------|-------------------------------|
E|-------------------------------|-------------------------------|

e|----2-- 2------ ------- 3------|----2-- ----2-- 2---2-- 2---2--|
B|----1---1---------------1------|----3-------3---3---3---3---3--|
G|----2---2---------------2------|----2-------2---2---2---2---2--|
D|----0---0---------------0------|----0-------0---0---0---0---0--|
A|-------------------------------|-------------------------------|
E|-------------------------------|-------------------------------|
D7 D7sus4 D




e|------- ------- ------- -------|------- ------- ------- -------|
B|-------------------------------|-------------------------------|
G|-------------------------------|-------------------------------|
D|-------------------------------|-------------------------------|
A|-------------------------------|-------------------------------|
E|5---5-------5---5---5-------5--|4---4-------4---4---4---4---4--|
I can hear the grass grow,
e|------- 3------ ------- 3------|------- 2------ ------- 2------|
B|--------3---------------3------|--------3---------------3------|
G|--------0---------------0------|--------4---------------4------|
D|--------0---------------0------|--------4---------------4------|
A|--------2---------------2------|--------2---------------2------|
E|--------3---------------3------|-------------------------------|
G Bm
e|------- 3------ ------- 3------|------- 3------ ------- 3------|
B|--------3---------------3------|--------3---------------3------|
G|--------0---------------0------|--------0---------------0------|
D|--------0---------------0------|--------4---------------4------|
A|-------------------------------|-------------------------------|
E|-------------------------------|-------------------------------|
Gmaj7




e|------- ------- ------- -------|------- ------- ------- -------|
B|-------------------------------|-------------------------------|
G|-------------------------------|-------------------------------|
D|-------------------------------|-------------------------------|
A|-------------------------------|-------------------------------|
E|2---2---2---2---2---2-------2--|4---4-------4---5---5---5---5--|
I can hear the grass grow,
e|------- 0------ ------- 0------|------- 2------ ------- 3---3--|
B|--------0---------------0------|--------3---------------3---3--|
G|--------0---------------0------|--------4---------------0---0--|
D|--------2---------------2------|--------4---------------0---0--|
A|--------2---------------2------|--------2---------------2---2--|
E|--------0---------------0------|------------------------3---3--|
Em Bm G
e|------- 3------ ------- 3------|------- 3------ ------- 3------|
B|--------3---------------3------|--------3---------------3------|
G|--------0---------------0------|--------0---------------0------|
D|--------2---------------2------|--------4---------------0------|
A|-------------------------------|-------------------------------|
E|-------------------------------|-------------------------------|
G6 Gmaj7 G




e|------- ------- ------- -------|------- ------- ------- -------|
B|-------------------------------|-------------------------------|
G|-------------------------------|-------------------------------|
D|-------------------------------|-------------------------------|
A|-------------------------------|-------------------------------|
E|7---7---7---7---7---7---7---7--|7---7---7---7---7---7---7---7--|
I see rainbows in the evening
e|5---5-- 5---5-- 5---5-- 5---5--|5---5-- 5---5-- 5---5-- 5---5--|
B|5---5---5---5---5---5---5---5--|5---5---5---5---5---5---5---5--|
G|6---6---6---6---6---6---6---6--|6---6---6---6---6---6---6---6--|
D|7---7---7---7---7---7---7---7--|7---7---7---7---7---7---7---7--|
A|0---0---0---0---0---0---0---0--|0---0---0---0---0---0---0---0--|
E|-------------------------------|-------------------------------|
A
e|9---9-- 9---9-- 9---9-- 9---9--|9---9-- 9---9-- 9---9-- 9---9--|
B|10--10--10--10--10--10--10--10-|10--10--10--10--10--10--10--10-|
G|9---9---9---9---9---9---9---9--|9---9---9---9---9---9---9---9--|
D|11--11--11--11--11--11--11--11-|11--11--11--11--11--11--11--11-|
A|-------------------------------|-------------------------------|
E|-------------------------------|-------------------------------|





e|------- ------- ------- -------|
B|-------------------------------|
G|-------------------------------|
D|-------------------------------|
A|-------------------------------|
E|7---9---7---9---4---5---2---4--|

e|5---5-- 5---5-- 5---5-- 5---5--|
B|5---5---5---5---5---5---5---5--|
G|6---6---6---6---6---6---6---6--|
D|7---7---7---7---7---7---7---7--|
A|0---0---0---0---0---0---0---0--|
E|-------------------------------|

e|9---9-- 9---9-- 9---9-- 9---9--|
B|10--10--10--10--10--10--10--10-|
G|9---9---9---9---9---9---9---9--|
D|11--11--11--11--11--11--11--11-|
A|-------------------------------|
E|-------------------------------|





e|------- ------- ------- -------|------- ------- ------- -------|
B|-------------------------------|-------------------------------|
G|-------------------------------|-------------------------------|
D|-------------------------------|-------------------------------|
A|--------5---------------5------|--------5---------------5------|
E|0---0-------0---0---0-------0--|0---0-------0---0---0-------0--|

e|2---2-- 2------ 2------ 2------|2---2-- 2------ 2------ 2---2--|
B|3---3---3-------3-------3------|3---3---3-------3-------3---3--|
G|2---2---2-------2-------2------|2---2---2-------2-------2---2--|
D|0---0---0-------0-------0------|0---0---0-------0-------0---0--|
A|-------------------------------|-------------------------------|
E|-------------------------------|-------------------------------|
D
e|------- ------- ------- -------|------- ------- ------- -------|
B|-------------------------------|-------------------------------|
G|11--11--12--11--12B14R1211--9--|11B12R119---7---9-B-11--------11
D|0---0---0---0---0-------0---0--|0-------0---0---0-------------0|
A|-------------------------------|-------------------------------|
E|-------------------------------|-------------------------------|

e|------- ------- ------- -------|------- ------- ------- -------|
B|10------12--10--12B13R1210--8--|10B12R108---7---8-B-10---------|
G|-------------------------------|-------------------------------|
D|-------------------------------|-------------------------------|
A|-------------------------------|-------------------------------|
E|-------------------------------|-------------------------------|





e|------- ------- ------- -------|------- ------- ------- -------|
B|-------------------------------|-------------------------------|
G|-------------------------------|-------------------------------|
D|-------------------------------|-------------------------------|
A|--------5---------------5------|--------5---------------5------|
E|0---0-------0---0---0-------0--|0---0-------0---0--------------|

e|2---2-- 2---2-- 2------ 2------|2---2-- 2------ 2------ 2------|
B|3---3---3---3---3-------3------|3---3---3-------3-------3------|
G|2---2---2---2---2-------2------|2---2---2-------2-------2------|
D|0---0---0---0---0-------0------|0---0---0-------0-------0------|
A|-------------------------------|-------------------------------|
E|-------------------------------|-------------------------------|

e|------- ------- ------- -------|------- ------- ------- -------|
B|-------------------------------|-------------------------------|
G|11--11--12--11--12B14R1211--9--|11--------------9-/-11--7------|
D|0---0---0---0---0-------0---0--|0---------------0-------0------|
A|-------------------------------|-------------------------------|
E|-------------------------------|-------------------------------|

e|------- ------- ------- -------|------- ------- ------- -------|
B|10------12--10--12B13R1210--8--|10--------------8-/-10--7-----7|
G|-------------------------------|----------------9-/-11--7-----7|
D|-------------------------------|----------------0-------0-----0|
A|-------------------------------|-------------------------------|
E|-------------------------------|-------------------------------|




e|------- ------- ------- -------|------- ------- ------- -------|
B|-------------------------------|-------------------------------|
G|-------------------------------|-------------------------------|
D|-------------------------------|-------------------------------|
A|--------5---------------5------|--------5---------------5------|
E|0---------------0---0-------0--|0---------------0--------------|
Can't seem to puzzle out the signs
e|5------ ------- ------- ------5|5------ ------- ------- ------3|
B|7-----------------------------7|7-----------------------------5|
G|7-----------------------------7|7-----------------------------5|
D|0-----------------------------0|0-----------------------------0|
A|-------------------------------|-------------------------------|
E|-------------------------------|-------------------------------|
D C
e|------- ------- ------- -------|------- ------- ------- -------|
B|10-----------------------------|-------------------------------|
G|11-----------------------------|-------------------------------|
D|0------------------------------|-------------------------------|
A|-------------------------------|-------------------------------|
E|-------------------------------|-------------------------------|






e|------- ------- ------- -------|------- ------- ------- -------|
B|-------------------------------|-------------------------------|
G|-------------------------------|-------------------------------|
D|-------------------------------|-------------------------------|
A|--------5---------------5------|----5-------5-------5-------5--|
E|0---0-----------0---0----------|0-------0-------0-------0------|

e|3------ ------0 0------ ------7|7------ ------3 3------ ------5|
B|5-------------5-5-------------8|8-------------5-5-------------7|
G|5-------------5-5-------------7|7-------------5-5-------------7|
D|0-------------0-0-------------0|0-------------0-0-------------0|
A|-------------------------------|-------------------------------|
E|-------------------------------|-------------------------------|
Cadd9 G C D




e|------- ------- ------- -------|------- ------- ------- -------|
B|-------------------------------|-------------------------------|
G|-------------------------------|-------------------------------|
D|-------------------------------|-------------------------------|
A|--------5---------------5------|--------5---------------5------|
E|0---------------0---0-------0--|0---0-----------0--------------|
My senses form a micro
e|5------ ------- ------- ------5|5------ ------- ------- ------3|
B|7-----------------------------7|7-----------------------------5|
G|7-----------------------------7|7-----------------------------5|
D|0-----------------------------0|0-----------------------------0|
A|-------------------------------|-------------------------------|
E|-------------------------------|-------------------------------|
C




e|------- ------- ------- -------|------- ------- ------- -------|
B|-------------------------------|-------------------------------|
G|-------------------------------|-------------------------------|
D|-------------------------------|-------------------------------|
A|--------5---------------5------|----5-------5-------5-------5--|
E|0---0-----------0---0----------|0-------0-------0-------0------|
line
e|3------ ------0 0------ ------7|7------ ------5 5------ -------|
B|5-------------5-5-------------8|8-------------7-7--------------|
G|5-------------5-5-------------7|7-------------7-7--------------|
D|0-------------0-0-------------0|0-------------0-0--------------|
A|-------------------------------|-------------------------------|
E|-------------------------------|-------------------------------|
Cadd9 G D



e|------- ------- ------- -------|------- ------- ------- -------|
B|-------------------------------|-------------------------------|
G|-------------------------------|-------------------------------|
D|-------------------------------|-------------------------------|
A|-------------------------------|-------------------------------|
E|2---2---4---2---5---2---4---2--|2---2---4---2---2---2---4---2--|
So get a hold of yourself, now baby




e|------- ------- ------- -------|------- ------- ------- -------|
B|-------------------------------|-------------------------------|
G|-------------------------------|-------------------------------|
D|-------------------------------|-------------------------------|
A|-------------------------------|-------------------------------|
E|----2---4-------5---2---4---2--|2---2---4---2---5---2---4---2--|
You see I need you to help, now baby




e|------- ------- ------- -------|------- ------- ------- -------|
B|-------------------------------|-------------------------------|
G|-------------------------------|-------------------------------|
D|-------------------------------|-------------------------------|
A|-------------------------------|-------------------------------|
E|2---2---4---2---5---2---4---2--|2---2---4---2---5---2---4---2--|
Get a hold of yourself, now baby





e|------- ------- ------- -------|
B|-------------------------------|
G|-------------------------------|
D|-------------------------------|
A|-------------------------------|
E|7---9---7---9---4---5---2---4--|





e|------- ------- ------- -------|------- ------- ------- -------|
B|-------------------------------|-------------------------------|
G|-------------------------------|-------------------------------|
D|-------------------------------|-------------------------------|
A|--------5---------------5------|--------5---------------5------|
E|0---0-----------0---0-------0--|0---0-----------0---0-------0--|
Put your head down to the ground and
e|2---2-- 2------ 2------ 2------|2---2-- 2------ 2------ 2------|
B|3---3---3-------3-------3------|3---3---3-------3-------3------|
G|2---2---2-------2-------2------|2---2---2-------2-------2------|
D|0---0---0-------0-------0------|0---0---0-------0-------0------|
A|-------------------------------|-------------------------------|
E|-------------------------------|-------------------------------|
D
e|------- 2------ ------- 2------|------- 2------ ------- 3------|
B|--------3---------------3------|--------3---------------3------|
G|--------2---------------2------|--------2---------------2------|
D|--------0---------------0------|--------0---------------0------|
A|-------------------------------|-------------------------------|
E|-------------------------------|-------------------------------|
Dsus4




e|------- ------- ------- -------|------- ------- ------- -------|
B|-------------------------------|-------------------------------|
G|-------------------------------|-------------------------------|
D|-------------------------------|-------------------------------|
A|--------5---------------5------|-------------------------------|
E|0---0-----------0---0-------0--|0---0---0---7---4---5---2---4--|
listen to your mind
e|2---2-- 2------ 2------ 2------|2---2-- 2------ 2---2-- 2---2--|
B|3---3---3-------3-------3------|3---3---3-------3---3---3---3--|
G|2---2---2-------2-------2------|2---2---2-------2---2---2---2--|
D|0---0---0-------0-------0------|0---0---0-------0---0---0---0--|
A|-------------------------------|-------------------------------|
E|-------------------------------|-------------------------------|

e|------- 2------ ------- 3------|------- ------- ------- -------|
B|--------3---------------3------|-------------------------------|
G|--------2---------------2------|-------------------------------|
D|--------0---------------0------|-------------------------------|
A|-------------------------------|-------------------------------|
E|-------------------------------|-------------------------------|
D




e|------- ------- ------- -------|------- ------- ------- -------|
B|-------------------------------|-------------------------------|
G|-------------------------------|-------------------------------|
D|-------------------------------|-------------------------------|
A|--------5---------------5------|--------5---------------5------|
E|0---0-----------0---0-------0--|0---0-----------0---0-------0--|
If you can't spell what you find then I'll
e|2---2-- 2---2-- 2------ 2------|2---2-- 2------ 2------ 2------|
B|3---3---3---3---3-------3------|3---3---3-------3-------3------|
G|2---2---2---2---2-------2------|2---2---2-------2-------2------|
D|0---0---0---0---0-------0------|0---0---0-------0-------0------|
A|-------------------------------|-------------------------------|
E|-------------------------------|-------------------------------|

e|------- 2------ ------- 2------|------- 2------ ------- 3------|
B|--------3---------------3------|--------3---------------3------|
G|--------2---------------2------|--------2---------------2------|
D|--------0---------------0------|--------0---------------0------|
A|-------------------------------|-------------------------------|
E|-------------------------------|-------------------------------|
Dsus4




e|------- ------- ------- -------|------- ------- ------- -------|
B|-------------------------------|-------------------------------|
G|-------------------------------|-------------------------------|
D|-------------------------------|-------------------------------|
A|--------5---------------5------|-------------------------------|
E|0---0-----------0---0-------0--|0---0-------7---4---5---2---4--|
know that you're not my kind
e|2---2-- 2------ 2---2-- 2------|2---2-- 2---2-- 2---2-- 2---2--|
B|3---3---3-------3---3---3------|3---3---3---3---3---3---3---3--|
G|2---2---2-------2---2---2------|2---2---2---2---2---2---2---2--|
D|0---0---0-------0---0---0------|0---0---0---0---0---0---0---0--|
A|-------------------------------|-------------------------------|
E|-------------------------------|-------------------------------|

e|------- 2------ ------- 3------|------- ------- ------- -------|
B|--------1---------------1------|-------------------------------|
G|--------2---------------2------|-------------------------------|
D|--------0---------------0------|-------------------------------|
A|-------------------------------|-------------------------------|
E|-------------------------------|-------------------------------|
D7 D7sus4




e|------- ------- ------- -------|------- ------- ------- -------|
B|-------------------------------|-------------------------------|
G|-------------------------------|-------------------------------|
D|-------------------------------|-------------------------------|
A|-------------------------------|-------------------------------|
E|5---5-------5---5---5-------5--|4---4-------4---4---4-------4--|
I can hear the grass grow,
e|------- 3------ ------- 3------|------- 2------ ------- 2------|
B|--------3---------------3------|--------3---------------3------|
G|--------0---------------0------|--------4---------------4------|
D|--------0---------------0------|--------4---------------4------|
A|--------2---------------2------|--------2---------------2------|
E|--------3---------------3------|-------------------------------|
G Bm
e|------- 3------ ------- 3------|------- 3------ ------- 3------|
B|--------3---------------3------|--------3---------------3------|
G|--------0---------------0------|--------0---------------0------|
D|--------0---------------0------|--------4---------------4------|
A|-------------------------------|-------------------------------|
E|-------------------------------|-------------------------------|
Gmaj7




e|------- ------- ------- -------|------- ------- ------- -------|
B|-------------------------------|-------------------------------|
G|-------------------------------|-------------------------------|
D|-------------------------------|-------------------------------|
A|-------------------------------|-------------------------------|
E|2---2-------2---2---2-------2--|4---4-------4---5---5-------5--|
I can hear the grass grow,
e|------- 0------ ------- 0------|------- 2------ ------- 3---3--|
B|--------0---------------0------|--------3---------------3---3--|
G|--------0---------------0------|--------4---------------0---0--|
D|--------2---------------2------|--------4---------------0---0--|
A|--------2---------------2------|--------2---------------2---2--|
E|--------0---------------0------|------------------------3---3--|
Em Bm G
e|------- 3------ ------- 3------|------- 3------ ------- 3------|
B|--------3---------------3------|--------3---------------3------|
G|--------0---------------0------|--------0---------------0------|
D|--------2---------------2------|--------4---------------0------|
A|-------------------------------|-------------------------------|
E|-------------------------------|-------------------------------|
G6 Gmaj7 G




e|------- ------- ------- -------|------- ------- ------- -------|
B|-------------------------------|-------------------------------|
G|-------------------------------|-------------------------------|
D|-------------------------------|-------------------------------|
A|-------------------------------|-------------------------------|
E|7---7---7---7---7---7---7---7--|7---7---7---7---7---7---7---7--|
I see rainbows in the evening
e|5---5-- 5---5-- 5---5-- 5---5--|5---5-- 5---5-- 5---5-- 5---5--|
B|5---5---5---5---5---5---5---5--|5---5---5---5---5---5---5---5--|
G|6---6---6---6---6---6---6---6--|6---6---6---6---6---6---6---6--|
D|7---7---7---7---7---7---7---7--|7---7---7---7---7---7---7---7--|
A|0---0---0---0---0---0---0---0--|0---0---0---0---0---0---0---0--|
E|-------------------------------|-------------------------------|
A
e|9---9-- 9---9-- 9---9-- 9---9--|9---9-- 9---9-- 9---9-- 9---9--|
B|10--10--10--10--10--10--10--10-|10--10--10--10--10--10--10--10-|
G|9---9---9---9---9---9---9---9--|9---9---9---9---9---9---9---9--|
D|11--11--11--11--11--11--11--11-|11--11--11--11--11--11--11--11-|
A|-------------------------------|-------------------------------|
E|-------------------------------|-------------------------------|





e|------- ------- ------- -------|
B|-------------------------------|
G|-------------------------------|
D|-------------------------------|
A|-------------------------------|
E|7---9---7---9---4---5---2---4--|

e|5---5-- 5---5-- 5---5-- 5---5--|
B|5---5---5---5---5---5---5---5--|
G|6---6---6---6---6---6---6---6--|
D|7---7---7---7---7---7---7---7--|
A|0---0---0---0---0---0---0---0--|
E|-------------------------------|

e|9---9-- 9---9-- 9---9-- 9---9--|
B|10--10--10--10--10--10--10--10-|
G|9---9---9---9---9---9---9---9--|
D|11--11--11--11--11--11--11--11-|
A|-------------------------------|
E|-------------------------------|





e|------- ------- ------- -------|------- ------- ------- -------|
B|-------------------------------|-------------------------------|
G|-------------------------------|-------------------------------|
D|-------------------------------|-------------------------------|
A|--------5---------------5------|--------5---------------5------|
E|0---------------0--------------|0---------------0--------------|
Can't seem to puzzle out the signs
e|5------ ------- ------- ------5|5------ ------- ------- ------3|
B|7-----------------------------7|7-----------------------------5|
G|7-----------------------------7|7-----------------------------5|
D|0-----------------------------0|0-----------------------------0|
A|-------------------------------|-------------------------------|
E|-------------------------------|-------------------------------|
D C
e|------- ------- ------- -------|------- ------- ------- -------|
B|10-----------------------------|-------------------------------|
G|11-----------------------------|-------------------------------|
D|0------------------------------|-------------------------------|
A|-------------------------------|-------------------------------|
E|-------------------------------|-------------------------------|






e|------- ------- ------- -------|------- ------- ------- -------|
B|-------------------------------|-------------------------------|
G|-------------------------------|-------------------------------|
D|-------------------------------|-------------------------------|
A|--------5---------------5------|----5-------5-------5-------5--|
E|0---0-----------0---0----------|0-------0-------0-------0------|

e|3------ ------0 0------ ------7|7------ ------3 3------ ------5|
B|5-------------5-5-------------8|8-------------5-5-------------7|
G|5-------------5-5-------------7|7-------------5-5-------------7|
D|0-------------0-0-------------0|0-------------0-0-------------0|
A|-------------------------------|-------------------------------|
E|-------------------------------|-------------------------------|
Cadd9 G C D




e|------- ------- ------- -------|------- ------- ------- -------|
B|-------------------------------|-------------------------------|
G|-------------------------------|-------------------------------|
D|-------------------------------|-------------------------------|
A|--------5---------------5------|--------5---------------5------|
E|0-----------0---0---0---0---0--|0-------0---0---0---0---0------|
My senses form a micro
e|5------ ------- ------- ------5|5------ ------- ------- ------3|
B|7-----------------------------7|7-----------------------------5|
G|7-----------------------------7|7-----------------------------5|
D|0-----------------------------0|0-----------------------------0|
A|-------------------------------|-------------------------------|
E|-------------------------------|-------------------------------|
C




e|------- ------- ------- -------|------- ------- ------- -------|
B|-------------------------------|-------------------------------|
G|-------------------------------|-------------------------------|
D|-------------------------------|-------------------------------|
A|--------5---------------5------|----5-------5-------5-------5--|
E|0---0-------0---0---0-------0--|0---0---0---0---0---0---0---0--|
line
e|3------ ------0 0------ ------7|7------ ------5 5------ -------|
B|5-------------5-5-------------8|8-------------7-7--------------|
G|5-------------5-5-------------7|7-------------7-7--------------|
D|0-------------0-0-------------0|0-------------0-0--------------|
A|-------------------------------|-------------------------------|
E|-------------------------------|-------------------------------|
Cadd9 G D



e|------- ------- ------- -------|------- ------- ------- -------|
B|-------------------------------|-------------------------------|
G|-------------------------------|-------------------------------|
D|-------------------------------|-------------------------------|
A|-------------------------------|-------------------------------|
E|2---2---4---2---5---2---4---2--|2---2---4---2---5---2---4---2--|
So get a hold of yourself, now baby




e|------- ------- ------- -------|------- ------- ------- -------|
B|-------------------------------|-------------------------------|
G|-------------------------------|-------------------------------|
D|-------------------------------|-------------------------------|
A|-------------------------------|-------------------------------|
E|----2---4-------5---2---4---2--|2---2---4---2---5---2---4---2--|
You see I need you to help, now baby




e|------- ------- ------- -------|------- ------- ------- -------|
B|-------------------------------|-------------------------------|
G|-------------------------------|-------------------------------|
D|-------------------------------|-------------------------------|
A|-------------------------------|-------------------------------|
E|2---2---4---2---5---2---4---2--|2---2---4---2---5---2---4---2--|
Get a hold of yourself, now baby





e|------- ------- ------- -------|
B|-------------------------------|
G|-------------------------------|
D|-------------------------------|
A|-------------------------------|
E|7---9---7---9---4---5---2---4--|




e|------- ------- ------- -------|------- ------- ------- -------|
B|-------------------------------|-------------------------------|
G|-------------------------------|-------------------------------|
D|-------------------------------|-------------------------------|
A|--------5---------------5------|--------5---------------5------|
E|0---0-----------0---0-------0--|0---0-----------0---0-------0--|
See the people all in line, what's
e|2---2-- 2------ 2---2-- 2------|2---2-- 2------ 2------ 2------|
B|3---3---3-------3---3---3------|3---3---3-------3-------3------|
G|2---2---2-------2---2---2------|2---2---2-------2-------2------|
D|0---0---0-------0---0---0------|0---0---0-------0-------0------|
A|-------------------------------|-------------------------------|
E|-------------------------------|-------------------------------|
D
e|------- 2------ ------- 2------|------- 2------ ------- 3------|
B|--------3---------------3------|--------3---------------3------|
G|--------2---------------2------|--------2---------------2------|
D|--------0---------------0------|--------0---------------0------|
A|-------------------------------|-------------------------------|
E|-------------------------------|-------------------------------|
Dsus4




e|------- ------- ------- -------|------- ------- ------- -------|
B|-------------------------------|-------------------------------|
G|-------------------------------|-------------------------------|
D|-------------------------------|-------------------------------|
A|--------5---------------5------|------------------------------|
E|0---0-----------0---0-------0--|0---0---0---7---4---5---2---4--|
making them look at me?
e|2---2-- 2------ 2------ 2------|2---2-- 2---2-- 2---2-- 2---2--|
B|3---3---3-------3-------3------|3---3---3---3---3---3---3---3--|
G|2---2---2-------2-------2------|2---2---2---2---2---2---2---2--|
D|0---0---0-------0-------0------|0---0---0---0---0---0---0---0--|
A|-------------------------------|-------------------------------|
E|-------------------------------|-------------------------------|

e|------- 2------ ------- 0------|------- ------- ------- -------|
B|--------3---------------1------|-------------------------------|
G|--------2---------------0------|-------------------------------|
D|--------0---------------0------|-------------------------------|
A|-------------------------------|-------------------------------|
E|-------------------------------|-------------------------------|
D Cadd9




e|------- ------- ------- -------|------- ------- ------- -------|
B|-------------------------------|-------------------------------|
G|-------------------------------|-------------------------------|
D|-------------------------------|-------------------------------|
A|--------5---------------5------|--------5---------------5------|
E|0---0-----------0---0-------0--|0---0-----------0---0-------0--|
I can't imagine that their minds are
e|2---2-- 2------ 2---2-- 2------|2---2-- 2------ 2------ 2------|
B|3---3---3-------3---3---3------|3---3---3-------3-------3------|
G|2---2---2-------2---2---2------|2---2---2-------2-------2------|
D|0---0---0-------0---0---0------|0---0---0-------0-------0------|
A|-------------------------------|-------------------------------|
E|-------------------------------|-------------------------------|

e|------- 2------ ------- 2------|------- 2------ ----3-- 3---3--|
B|--------3---------------3------|--------3-----------3---3---3--|
G|--------2---------------2------|--------2-----------2---2---2--|
D|--------0---------------0------|--------0-----------0---0---0--|
A|-------------------------------|-------------------------------|
E|-------------------------------|-------------------------------|
D Dsus4




e|------- ------- ------- -------|------- ------- ------- -------|
B|-------------------------------|-------------------------------|
G|-------------------------------|-------------------------------|
D|-------------------------------|-------------------------------|
A|--------5---------------5------|-------------------------------|
E|0---0-----------0---0-------0--|0---0-------7---4---5---2---4--|
thinking the same as me
e|2---2-- 2------ 2---2-- 2------|2---2-- ----2-- 2---2-- 2---2--|
B|3---3---3-------3---3---3------|3---3-------3---3---3---3---3--|
G|2---2---2-------2---2---2------|2---2-------2---2---2---2---2--|
D|0---0---0-------0---0---0------|0---0-------0---0---0---0---0--|
A|-------------------------------|-------------------------------|
E|-------------------------------|-------------------------------|

e|------- 2------ ------- 3------|----2-- ----2-- 2------ 2---2--|
B|--------3---------------3------|----3-------3---3-------3---3--|
G|--------2---------------2------|----2-------2---2-------2---2--|
D|--------0---------------0------|----0-------0---0-------0---0--|
A|-------------------------------|-------------------------------|
E|-------------------------------|-------------------------------|
D Dsus4 D




e|------- ------- ------- -------|------- ------- ------- -------|
B|-------------------------------|-------------------------------|
G|-------------------------------|-------------------------------|
D|-------------------------------|-------------------------------|
A|-------------------------------|-------------------------------|
E|5---5-------5---5---5-------5--|4---4-------4---4---4-------4--|
I can hear the grass grow,
e|------- 3------ ------- 3---3--|------- 2------ ------- 2------|
B|--------3---------------3---3--|--------3---------------3------|
G|--------0---------------0---0--|--------4---------------4------|
D|--------0---------------0---0--|--------4---------------4------|
A|--------2---------------2---2--|--------2---------------2------|
E|--------3---------------3---3--|-------------------------------|
G Bm
e|------- 3------ ------- 3------|------- 3------ ------- 3------|
B|--------3---------------3------|--------3---------------3------|
G|--------0---------------0------|--------0---------------0------|
D|--------0---------------0------|--------4---------------4------|
A|-------------------------------|-------------------------------|
E|-------------------------------|-------------------------------|
Gmaj7




e|------- ------- ------- -------|------- ------- ------- -------|
B|-------------------------------|-------------------------------|
G|-------------------------------|-------------------------------|
D|-------------------------------|-------------------------------|
A|-------------------------------|-------------------------------|
E|2---2-------2---2---2---2---2--|4---4-------4---5---5-------5--|
I can hear the grass grow,
e|------- 0------ ------- 0------|------- 2------ ------- 3------|
B|--------0---------------0------|--------3---------------3------|
G|--------0---------------0------|--------4---------------0------|
D|--------2---------------2------|--------4---------------0------|
A|--------2---------------2------|--------2---------------2------|
E|--------0---------------0------|------------------------3------|
Em Bm G
e|------- 3------ ------- 3------|------- 3------ ------- 3------|
B|--------3---------------3------|--------3---------------3------|
G|--------0---------------0------|--------0---------------0------|
D|--------2---------------2------|--------4---------------0------|
A|-------------------------------|-------------------------------|
E|-------------------------------|-------------------------------|
G6 Gmaj7 G




e|------- ------- ------- -------|------- ------- ------- -------|
B|-------------------------------|-------------------------------|
G|-------------------------------|-------------------------------|
D|-------------------------------|-------------------------------|
A|-------------------------------|-------------------------------|
E|7---7---7---7---7---7---7---7--|7---7---7---7---7---7---7---7--|
I see rainbows in the evening
e|5---5-- 5---5-- 5---5-- 5---5--|5---5-- 5---5-- 5---5-- 5---5--|
B|5---5---5---5---5---5---5---5--|5---5---5---5---5---5---5---5--|
G|6---6---6---6---6---6---6---6--|6---6---6---6---6---6---6---6--|
D|7---7---7---7---7---7---7---7--|7---7---7---7---7---7---7---7--|
A|0---0---0---0---0---0---0---0--|0---0---0---0---0---0---0---0--|
E|-------------------------------|-------------------------------|
A
e|9---9-- 9---9-- 9---9-- 9---9--|9---9-- 9---9-- 9---9-- 9---9--|
B|10--10--10--10--10--10--10--10-|10--10--10--10--10--10--10--10-|
G|9---9---9---9---9---9---9---9--|9---9---9---9---9---9---9---9--|
D|11--11--11--11--11--11--11--11-|11--11--11--11--11--11--11--11-|
A|-------------------------------|-------------------------------|
E|-------------------------------|-------------------------------|





e|------- ------- ------- -------|
B|-------------------------------|
G|-------------------------------|
D|-------------------------------|
A|-------------------------------|
E|7---9---7---9---4---5---2---4--|[/tab#i

ACORDES PARA GUITARRA

PIANO UKELELE


COMENTARIOS

Aún no hay comentarios,

¡escribe el primero!

Escribe una pregunta, duda o comentario sobre esta canción, te responderemos a la brevedad.

Las más tocadas de The Move

Toca una Canción al Azar de The Move