Another One Rides The Bus
Weird Al Yankovic
Acordes

Subida por Debra



Cambiar Cifrado
Americano Latino

Cambiar Tonalidad
-1 +1

Partir Pantalla Imprimir FAQ

+A
-A
Hey!
Moxycle Cheesemuncher here,
For all you pie-eating freak-nuts out there...
For example: Connor, Logie, Af, Nick, Sass-Dogg, Chingy, Shiree,
Matt Gobbe and Jay Kempnich
Do never give up on Oprah...?
Anyways...Here it is!


Main Riff

e|-----------------------||
B|-----------------------||
G|-----------------------||
D|-----------------------||
A|------------------5----||
E|-5-5-5--0h5-5-8-5------||


Verse/Chorus Section

e|--------------------------------------------||
B|--------------------------------------------||
G|--------------------------------------------||
D|--------------------------------------------||
A|---4-4-6-----4-4--4-5-6----4-4-6---------6--||
E|---------4-4------------4--------4-4-6-6----||

That's it Banshees!
Enjoy your face,
Moxycle

ACORDES PARA GUITARRA

PIANO UKELELE


COMENTARIOS

Aún no hay comentarios,

¡escribe el primero!

Escribe una pregunta, duda o comentario sobre esta canción, te responderemos a la brevedad.

Las más tocadas de Weird Al Yankovic

Toca una Canción al Azar de Weird Al Yankovic