Bedrock Anthem (Acordes)

Weird Al Yankovic

Full Álbum: Alapalooza (1993)
Subida por Pabon

Compartir


Imprimir FAQ
+A
-A

Texto

Desplazamiento

Transportador

Color de Fondo

Archivos

-A
+A

tabbed by Andrew Beale 8/10/06

No bass during the Under the Bridge intro parody.

Give it Away parody begins:

verses & everything else:
G|----------12-----------|
D|-----/-14--------------|
A|-0-x----------0-3--0-3-|
E|-----------------------|

chorus:
G|--------------------------|
D|--------------------------|
A|--------------------------|
E|-5----3/5-----3/5-----3/5-|

just play those over and over, dont be afraid to improvise.

HERRAMIENTAS ACORDESWEB:


LETRA DE LA CANCIÓN:

Ver la letra sola (sin acordes)

DESCARGAR PDF / IMPRIMIR CANCIÓN



ACORDES PARA GUITARRA

PIANO UKELELE


TOP 20: Las más tocadas de Weird Al Yankovic


Acordes

Cerrar

21.48


59