Christmas At Ground Zero
Weird Al Yankovic
Acordes

Subida por bernabe



Cambiar Cifrado
Americano Latino

Cambiar Tonalidad
-1 +1

Partir Pantalla Imprimir FAQ

+A
-A
Album: Polka Party
Year: 1986.

transcribed by Goodwin
18/08/2005.

-----------------------

Chords used:
--------------
EADGBe
G (320033)
Bm (224432)
A (x02220)
D (xx0232)
F# (244322)
B (x24442)
E (022100)



Intro:

[ D A Bm F# ]x3 A (with jingle bells)

(sound of bomb falling w/ explosion, then)

[D Bm G A]x4



Verse 1:

D
It's Christmas at Ground Zero
A
there's music in the air,

the sleigh bells are ringin' and the carolers are singin'
D
While the air-raid sirens blare



Verse 2:

It's Christmas at Ground Zero
The button has been pressed
The radio just let us know
That "This is not a test..."


Bridge:

G
Everywhere the atom-bombs are droppin'

It's the end of all humanity
A
No more time for last-minute shoppin'
B A
It's time to face your final destiny



Verse 3:

Well, it's Christmas at Ground Zero
There's panic in the crowd
We can dodge debris while we trim the tree
Underneath a mushroom cloud



solo:
(same chords as the verse)

e|-----------------||---------------||----------------------------------------||
B|-----------------||---------------||----------------------------------------||
G|------------7-7--||---------------||--------6-6----------6-6----------------||
D|--7-9-7-6-7------||--7-9-7-6-7----||--7s9-7-------7s9-7--------7s9-7-6-7----||
A|-----------------||------------7--||-------------------------------------9--||
E|-----------------||---------------||----------------------------------------||

e|-----------------||---------------||--------------------------------------||
B|-----------------||---------------||--------------------------------------||
G|------------7-7--||---------------||--------6-----------------------------||
D|--7-9-7-6-7------||--7-9-7-6-7----||--7s9-7------7-6-7-----6-9-7-5-4-2-0--||
A|-----------------||------------7--||-------------------7------------------||
E|-----------------||---------------||--------------------------------------||

ACORDES PARA GUITARRA

PIANO UKELELE


COMENTARIOS

Aún no hay comentarios,

¡escribe el primero!

Escribe una pregunta, duda o comentario sobre esta canción, te responderemos a la brevedad.

Las más tocadas de Weird Al Yankovic

Toca una Canción al Azar de Weird Al Yankovic