Ill Sue Ya
Weird Al Yankovic
Acordes

Subida por katherine



HERRAMIENTAS

Cambiar Cifrado
Americano Latino

Cambiar Tonalidad
-1 +1

Partir Pantalla Imprimir FAQ

+A
-A
LETRA CON ACORDES

¿Tu Guitarra esta Afinada? PRUEBA NUESTRO NUEVO AFINADOR

Album:          Straight Outta Lynwood
Tabbed By:      Slimsg

This sounds really close to correct to me,
I changed a few things as I was making this
and listened to it more and more, so I'm sure
there's somethings I may have missed, then again
maybe not.
-Enjoy ^_^

Key:
   Tuning = Drop D (DADGBE)
        ^ = Slide
        v = Bend

(Opening)
-----------------------------|
-----------------------------|
-----------------------------|
-12-XX-12-XX-12-XXX-12-XX-12-|
-----------------------------|
-----------------------------|

-----------------------------|
-----------------------------|
-----------------------------|
-----------------------------|
-15-XX-15-XX-15-XXX-15-XX-15-|
-----------------------------|

-----------------------------|
-----------------------------|
-----------------------------|
-----------------------------|
-10-XX-10-XX-10-XXX-10-XX-10-|
-----------------------------|

----------------------------|
----------------------------|
----------------------------|
----------------------------|
-12-XX-12-XX-12-XX-12-12----|
----------------------------|

(Heavy Part)
----------------------------|
----------------------------|
----------------------------|
----------------------------|
-5---3-5---3-35--5---3-5----|
--0-0---0-0-------0-0---0---|

----------------------------|
----------------------------|
----------------------------|
----------------------------|
-3-56-5-3-------------------|
-3-56-5-3-------------------|

----------------------------|
----------------------------|
----------------------------|
----------------------------|
-5---3-5---3-35--5---3-5----|
--0-0---0-0-------0-0---0---|

----------------------------|
----------------------------|
----------------------------|
----------------------------|
-3-56-5-3-0-----------------|
-3-56-5-3-0-----------------|

(Verse)
----------------------------|
----------------------------|
----------------------------|
-5^7-10-7-5^7---------------|
-3^5-8--5-3^5---------------|
----------------------------| X4

(Verse Fill)
--------|
--------|
--------|
--------|
-565-3--|
-565-3--|

(Back to verse for 4 more times)
(Verse fill one more time)

(Prechorus I believe is what this is)

----------------------------|
----------------------------|
----------------------------|
----------------------------|
-----3-----2-----1----------|
-00-0--00-0--00-0-----------|

(Prechorus First Ending)

--------|
--------|
--------|
--------|
-565-3--|
-565-3--|

(Prechorus Second Ending)

----------|
----------|
----------|
-------3--|
----35----|
-65-------|

(Chorus)

----------------------------|
----------------------------|
----------------------------|
----------------------------|
-5---3-5---3-35--5---3-5----|
--0-0---0-0-------0-0---0---|

----------------------------|
----------------------------|
----------------------------|
----------------------------|
-3-56-5-3-------------------|
-3-56-5-3-------------------|

----------------------------|
----------------------------|
----------------------------|
----------------------------|
-5---3-5---3-35--5---3-5----|
--0-0---0-0-------0-0---0---|

----------------------------|
----------------------------|
----------------------------|
----------------------------|
-3-56-5-3-0-----------------|
-3-56-5-3-0-----------------|

(Chorus Ending)
----------------------------|
----------------------------|
----------------------------|
----------------------------|
-3-5-3-0-3^2-0-2-53-35------|
-----------------53---------| X3

----------------------------|
----------------------------|
----------------------------|
-----------------5----------|
-3-5-3-0-3^2-0-2-3----------|
----------------------------|

(Verse)
----------------------------|
----------------------------|
----------------------------|
-5^7-10-7-5^7---------------|
-3^5-8--5-3^5---------------|
----------------------------| X4

(Verse Fill)
--------|
--------|
--------|
--------|
-565-3--|
-565-3--|

----------------------------|
----------------------------|
----------------------------|
-5^7-10-7-5^7---------------|
-3^5-8--5-3^5---------------|
----------------------------| X3

E -----
B -----
G -----
D -5^7-
A -3^5-
D -----

(Verse Fill)
--------|
--------|
--------|
--------|
-565-3--|
-565-3--|

(Prechorus I believe is what this is)

----------------------------|
----------------------------|
----------------------------|
----------------------------|
-----3-----2-----1----------|
-00-0--00-0--00-0-----------|

(Prechorus First Ending)

--------|
--------|
--------|
--------|
-565-3--|
-565-3--|

(Prechorus Second Ending)

----------|
----------|
----------|
-------3--|
----35----|
-65-------|

(Chorus)

----------------------------|
----------------------------|
----------------------------|
----------------------------|
-5---3-5---3-35--5---3-5----|
--0-0---0-0-------0-0---0---|

----------------------------|
----------------------------|
----------------------------|
----------------------------|
-3-56-5-3-------------------|
-3-56-5-3-------------------|

----------------------------|
----------------------------|
----------------------------|
----------------------------|
-5---3-5---3-35--5---3-5----|
--0-0---0-0-------0-0---0---|

----------------------------|
----------------------------|
----------------------------|
----------------------------|
-3-56-5-3-0-----------------|
-3-56-5-3-0-----------------|

(Chorus Ending)
----------------------------|
----------------------------|
----------------------------|
-------------xxxx-----------|
-5---3-5---3-xxxx-----------|
--0-0---0-0--xxxx-----------| X3

----------------------------|
------------------21v-------|
----------------------------|
----------------------------|
-5---3-5----565-3-0---------|
--0-0---0-0-565-3-0---------|

(Bridge)


-------------|
-------------|
-7-----------|
-5--9--5--7--|
----7--3--5--|
-------------|

(Outro)

----------------|
----------------|
----------------|
----------------|
-5---3-5---3-35-|
--0-0---0-0-----| X4

----------------------------|
----------------------------|
----------------------------|
----------------------------|
-----3-----2-----1----------|
-00-0--00-0--00-0-----------|

--------|
--------|
--------|
--------|
-565-3--|
-565-3--|

----------------------------|
----------------------------|
----------------------------|
----------------------------|
-----3-----2-----1----------|
-00-0--00-0--00-0-----------|

----------|
----------|
----------|
-------3--|
----35----|
-65-------|

----------------------------|
----------------------------|
----------------------------|
----------------------------|
-5---3-5---3-35--5---3-5----|
--0-0---0-0-------0-0---0---|

-----------|
-----------|
-----------|
-----------|
-3-56-5-3--|
-3-56-5-3--|
----------------------------|
----------------------------|
----------------------------|
----------------------------|
-5---3-5---3-35--5---3-5----|
--0-0---0-0-------0-0---0---|

-----------|
-----------|
-----------|
-----------|
-3-56-5-3--|
-3-56-5-3--|////////////////// ¿Te Animas? Sube una canción a este sitio. //////////////////

ACORDES PARA GUITARRA

PIANO UKELELE


COMENTARIOS

Aún no hay comentarios,

¡escribe el primero!

Escribe una pregunta, duda o comentario sobre esta canción, te responderemos a la brevedad.

Las canciones más tocadas de Weird Al Yankovic

Toca una Canción al Azar de Weird Al Yankovic

00.11


Nuestro servidor se demoró 3.37 segundos en generar esta página. Claramente hay conexiones mas rápidas...