Ill Sue Ya
Weird Al Yankovic
Acordes

Subida por katherine



Cambiar Cifrado
Americano Latino

Cambiar Tonalidad
-1 +1

Partir Pantalla Imprimir FAQ

+A
-A
Album:          Straight Outta Lynwood
Tabbed By: Slimsg

This sounds really close to correct to me,
I changed a few things as I was making this
and listened to it more and more, so I'm sure
there's somethings I may have missed, then again
maybe not.
-Enjoy ^_^

Key:
Tuning = Drop D (DADGBE)
^ = Slide
v = Bend

(Opening)
E -----------------------------|
B -----------------------------|
G -----------------------------|
D -12-XX-12-XX-12-XXX-12-XX-12-|
A -----------------------------|
D -----------------------------|

E -----------------------------|
B -----------------------------|
G -----------------------------|
D -----------------------------|
A -15-XX-15-XX-15-XXX-15-XX-15-|
D -----------------------------|

E -----------------------------|
B -----------------------------|
G -----------------------------|
D -----------------------------|
A -10-XX-10-XX-10-XXX-10-XX-10-|
D -----------------------------|

E ----------------------------|
B ----------------------------|
G ----------------------------|
D ----------------------------|
A -12-XX-12-XX-12-XX-12-12----|
D ----------------------------|

(Heavy Part)
E ----------------------------|
B ----------------------------|
G ----------------------------|
D ----------------------------|
A -5---3-5---3-35--5---3-5----|
D --0-0---0-0-------0-0---0---|

E ----------------------------|
B ----------------------------|
G ----------------------------|
D ----------------------------|
A -3-56-5-3-------------------|
D -3-56-5-3-------------------|

E ----------------------------|
B ----------------------------|
G ----------------------------|
D ----------------------------|
A -5---3-5---3-35--5---3-5----|
D --0-0---0-0-------0-0---0---|

E ----------------------------|
B ----------------------------|
G ----------------------------|
D ----------------------------|
A -3-56-5-3-0-----------------|
D -3-56-5-3-0-----------------|

(Verse)
E ----------------------------|
B ----------------------------|
G ----------------------------|
D -5^7-10-7-5^7---------------|
A -3^5-8--5-3^5---------------|
D ----------------------------| X4

(Verse Fill)
E --------|
B --------|
G --------|
D --------|
A -565-3--|
D -565-3--|

(Back to verse for 4 more times)
(Verse fill one more time)

(Prechorus I believe is what this is)

E ----------------------------|
B ----------------------------|
G ----------------------------|
D ----------------------------|
A -----3-----2-----1----------|
D -00-0--00-0--00-0-----------|

(Prechorus First Ending)

E --------|
B --------|
G --------|
D --------|
A -565-3--|
D -565-3--|

(Prechorus Second Ending)

E ----------|
B ----------|
G ----------|
D -------3--|
A ----35----|
D -65-------|

(Chorus)

E ----------------------------|
B ----------------------------|
G ----------------------------|
D ----------------------------|
A -5---3-5---3-35--5---3-5----|
D --0-0---0-0-------0-0---0---|

E ----------------------------|
B ----------------------------|
G ----------------------------|
D ----------------------------|
A -3-56-5-3-------------------|
D -3-56-5-3-------------------|

E ----------------------------|
B ----------------------------|
G ----------------------------|
D ----------------------------|
A -5---3-5---3-35--5---3-5----|
D --0-0---0-0-------0-0---0---|

E ----------------------------|
B ----------------------------|
G ----------------------------|
D ----------------------------|
A -3-56-5-3-0-----------------|
D -3-56-5-3-0-----------------|

(Chorus Ending)
E ----------------------------|
B ----------------------------|
G ----------------------------|
D ----------------------------|
A -3-5-3-0-3^2-0-2-53-35------|
D -----------------53---------| X3

E ----------------------------|
B ----------------------------|
G ----------------------------|
D -----------------5----------|
A -3-5-3-0-3^2-0-2-3----------|
D ----------------------------|

(Verse)
E ----------------------------|
B ----------------------------|
G ----------------------------|
D -5^7-10-7-5^7---------------|
A -3^5-8--5-3^5---------------|
D ----------------------------| X4

(Verse Fill)
E --------|
B --------|
G --------|
D --------|
A -565-3--|
D -565-3--|

E ----------------------------|
B ----------------------------|
G ----------------------------|
D -5^7-10-7-5^7---------------|
A -3^5-8--5-3^5---------------|
D ----------------------------| X3

E -----
B -----
G -----
D -5^7-
A -3^5-
D -----

(Verse Fill)
E --------|
B --------|
G --------|
D --------|
A -565-3--|
D -565-3--|

(Prechorus I believe is what this is)

E ----------------------------|
B ----------------------------|
G ----------------------------|
D ----------------------------|
A -----3-----2-----1----------|
D -00-0--00-0--00-0-----------|

(Prechorus First Ending)

E --------|
B --------|
G --------|
D --------|
A -565-3--|
D -565-3--|

(Prechorus Second Ending)

E ----------|
B ----------|
G ----------|
D -------3--|
A ----35----|
D -65-------|

(Chorus)

E ----------------------------|
B ----------------------------|
G ----------------------------|
D ----------------------------|
A -5---3-5---3-35--5---3-5----|
D --0-0---0-0-------0-0---0---|

E ----------------------------|
B ----------------------------|
G ----------------------------|
D ----------------------------|
A -3-56-5-3-------------------|
D -3-56-5-3-------------------|

E ----------------------------|
B ----------------------------|
G ----------------------------|
D ----------------------------|
A -5---3-5---3-35--5---3-5----|
D --0-0---0-0-------0-0---0---|

E ----------------------------|
B ----------------------------|
G ----------------------------|
D ----------------------------|
A -3-56-5-3-0-----------------|
D -3-56-5-3-0-----------------|

(Chorus Ending)
E ----------------------------|
B ----------------------------|
G ----------------------------|
D -------------xxxx-----------|
A -5---3-5---3-xxxx-----------|
D --0-0---0-0--xxxx-----------| X3

E ----------------------------|
B ------------------21v-------|
G ----------------------------|
D ----------------------------|
A -5---3-5----565-3-0---------|
D --0-0---0-0-565-3-0---------|

(Bridge)


E -------------|
B -------------|
G -7-----------|
D -5--9--5--7--|
A ----7--3--5--|
D -------------|

(Outro)

E ----------------|
B ----------------|
G ----------------|
D ----------------|
A -5---3-5---3-35-|
D --0-0---0-0-----| X4

E ----------------------------|
B ----------------------------|
G ----------------------------|
D ----------------------------|
A -----3-----2-----1----------|
D -00-0--00-0--00-0-----------|

E --------|
B --------|
G --------|
D --------|
A -565-3--|
D -565-3--|

E ----------------------------|
B ----------------------------|
G ----------------------------|
D ----------------------------|
A -----3-----2-----1----------|
D -00-0--00-0--00-0-----------|

E ----------|
B ----------|
G ----------|
D -------3--|
A ----35----|
D -65-------|

E ----------------------------|
B ----------------------------|
G ----------------------------|
D ----------------------------|
A -5---3-5---3-35--5---3-5----|
D --0-0---0-0-------0-0---0---|

E -----------|
B -----------|
G -----------|
D -----------|
A -3-56-5-3--|
D -3-56-5-3--|
E ----------------------------|
B ----------------------------|
G ----------------------------|
D ----------------------------|
A -5---3-5---3-35--5---3-5----|
D --0-0---0-0-------0-0---0---|

E -----------|
B -----------|
G -----------|
D -----------|
A -3-56-5-3--|
D -3-56-5-3--|

ACORDES PARA GUITARRA

PIANO UKELELE


COMENTARIOS

Aún no hay comentarios,

¡escribe el primero!

Escribe una pregunta, duda o comentario sobre esta canción, te responderemos a la brevedad.

Las más tocadas de Weird Al Yankovic

Toca una Canción al Azar de Weird Al Yankovic