c ▷ ADICTO A TU DOLOR: (Forseps) Acordes para Guitarra, Piano & Ukelele

Adicto a tu dolor (Acordes)

Forseps

Subida por CCHAMO

Compartir


Imprimir FAQ
+A
-A

Texto

Desplazamiento

Transportador

Color de Fondo

Archivos

-A
+A
 PS AQUI LES DEJO STA BUENA ROLITA.

INTRO:X6
e]-----------------]-----------------]
B]-----------------]-----------------]
G]-----------------]-----------------]
D]-----------------]-----------------]
A]-----------------]-----------------]
E]-3-3-4-5-6-5-4-3-]-3-3-4-5-6-5-4-3-]


RIF:X4
En esta parte pueden acerlo en quintas o como les guste mas.

e]------------]-----------------]
B]------------]-----------------]
G]-------9----]-----------------]
D]--2----9----]-----------------]
A]--2----7----]-----------------]
E]--0---------]-3-3-4-5-6-5-4-3-]

RifF:x4
En esta parte es donde empieza a cantar.

Me tienes mal acostumbrado
a esa cara de felicidad...

e]----------------------]
B]----------------------]
G]--9-9--7---9----------]
D]--9-9--7---9---9-8----]
A]--7-7--5---7---9-8----]
E]---------------7-6----]

RIFF:X4
Dame mas de lo que das
solo quiero lagrimas
muestrame tus penas abrete las venas.

e]-----------------]-----------------]
B]-----------------]-----------------]
G]-----------------]-----------------]
D]-----------------]-----------------]
A]-----------------]-----------------]
E]-3-3-4-5-6-5-4-3-]-3-3-4-5-6-5-4-3-]

RIFF:X4
           ¡¡¡ADICTO A TU DOLOR...!!!
e]------------]-----------------]
B]------------]-----------------]
G]-------9----]-----------------]
D]--2----9----]-----------------]
A]--2----7----]-----------------]
E]--0---------]-3-3-4-5-6-5-4-3-]

   ES  EL DO LOR..
e]---------------]
B]---------------]
G]---------------]
D]---------------]
A]-8-8--7--5--2--]
E]-6-6--5--3--0--]


BUENO PUES ESO ES TODA LA ROLITA MUY BUENA X CIERTO YA SOLO
ACOMODEN LO DEMAS Y EL SOLO PUES ESTE TIPO DE CANCIONES SE PRESTAN
MUCHO PARA IMPROVISA. sme_ll_13@hotmail.com


Video Clip de Adicto a tu dolor


ACORDES PARA GUITARRA

PIANO UKELELE


TOP 20: Las más tocadas de Forseps


Toca una Canción al Azar de Forseps

Acordes

Cerrar

14.34

x

66