La pucha asesina
Forseps
Acordes

Subida por Gaby


Más Versiones
Ver. 2 Ver. 3

Cambiar Cifrado
Americano Latino

Cambiar Tonalidad
-1 +1

Partir Pantalla Imprimir FAQ

+A
-A


Ver solo la LETRA
intro


e------------|
B------------|
G------------|
D-6-699--6---|(x4)
A-6-699--6---|
E------------|


verso
e-------------|--------------------------------
B-------------|--------------------------------
G-------------|--------------------------------(x3)
D-6-699--6(x4)|-11-11-11--11/10/9/8------------
A-6-699--6----|-11-11-11--11/10/9/8------------
E-------------|--------------------------------

fin del verso
e---------------------------------------------------------
B---------------------------------------------------------
G---------------------------------------------------------
D--6-66666-5-55555-4-44444-3-33333---6-66666-5-55555-3----
A--6-66666-5-55555-4-44444-3-33333---6-66666-5-55555-3----
E---------------------------------------------------------


verso 2
e-------------|--------------------------------
B-------------|--------------------------------
G-------------|--------------------------------(x3)
D-6-699--6(x4)|-11-11-11--11/10/9/8------------
A-6-699--6----|-11-11-11--11/10/9/8------------
E-------------|--------------------------------


fin verso
e----------------------------------------------------------
B----------------------------------------------------------
G----------------------------------------------------------
D--6-66666-5-55555-4-44444-3-33333---6-66666-5-55555-3-----
A--6-66666-5-55555-4-44444-3-33333---6-66666-5-55555-3-----
E----------------------------------------------------------


solo

verso 3
e-------------|--------------------------------
B-------------|--------------------------------
G-------------|--------------------------------(x3)
D-6-699--6(x4)|-11-11-11--11/10/9/8------------
A-6-699--6----|-11-11-11--11/10/9/8------------
E-------------|--------------------------------

fin verso
e----------------------------------------------------------
B----------------------------------------------------------
G----------------------------------------------------------
D--6-66666-5-55555-4-44444-3-33333---6-66666-5-55555-3-----
A--6-66666-5-55555-4-44444-3-33333---6-66666-5-55555-3-----
E----------------------------------------------------------



estas son las figuras principales y es toda la cancion

espero les guste

un saludo pa mi carnal y pa nata
para hugo sofi dennis ale

esta cancion dedicada para todas las tapatias que no se bañan


ACORDES PARA GUITARRA

PIANO UKELELE


COMENTARIOS

Aún no hay comentarios,

¡escribe el primero!

Escribe una pregunta, duda o comentario sobre esta canción, te responderemos a la brevedad.

Las más tocadas de Forseps

Toca una Canción al Azar de Forseps